Аккорды «Elemeno P»

Elemeno P
Elemeno P — новозеландская рок-группа. Группа была образована в 2002 г. барабанщиком Скотти Пирсоном (англ. Scotty Pearson) и вокалистом Дэйвом Гибсоном (англ. Dave Gibson). Позднее к ним присоединились бас-гитарист Лани Паркис (англ. Lani Purkis) и гитарист Джастин Пилброу (англ. Justyn Pilbrow); последний покинул группу к 2005 г. Первый альбом коллектива, «Love & Disrespect» (рус. Любовь и презрение), был выпущен 4 июля 2003 г., и занял первое место по рейтингу RIANZ. Второй альбом группы, «Trouble… Читать полностью... Elemeno P — новозеландская рок-группа. Группа была образована в 2002 г. барабанщиком Скотти Пирсоном (англ. Scotty Pearson) и вокалистом Дэйвом Гибсоном (англ. Dave Gibson). Позднее к ним присоединились бас-гитарист Лани Паркис (англ. Lani Purkis) и гитарист Джастин Пилброу (англ. Justyn Pilbrow); последний покинул группу к 2005 г. Первый альбом коллектива, «Love & Disrespect» (рус. Любовь и презрение), был выпущен 4 июля 2003 г., и занял первое место по рейтингу RIANZ. Второй альбом группы, «Trouble in Paradise» (рус. Волнения в раю), вышел 24 ноября 2005 г.; третий (одноимённый), «Elemeno P» — 26 мая 2008 г. Elemeno P является самой «продаваемой» рок-группой Новой Зеландии, а в 2006 г. группа получила номинацию «Лучшей группы» по версии New Zealand Music Awards. Скрыть...
Популярные аккорды Elemeno P:
алфавиту | просмотрам | случайно
  • guitar intro: C G Am E F G
    
    
    First Verse:
    C             G                 Am         E
    They say that absence makes the heart grow fonder
          F        G         C
    but i doubt it, i really doubt it.
    C       G…
  • Legend:
    /=Slide
    *=Palm Mute
    p=Pull-Off
    x=Dead Note
    Intro:
    
    Riff A
    e|-------------------------------------|
    B|-------------------------------------|
    G|-------------5-5-10-10-10-9-9-9-7-7--|
    D|-7-7-7-5-5-5-5-5-10-10-10-9-9-9-7-7--|
    A|-7-7-7-5-5-5-3-3-8--8--8--7-7-7-5-5--|
    E|-5-5-5-3-3-3-------------------------|
    
    Riff…
  • Tuning: E
            B
            G
            D
            A
            E 
    
    Intro
    e|---------------------------------------------------------------------------|
    B|---------------------------------------------------------------------------|
    G|---------------------------------------------------------------------------|
    D|---------------------------------------------------------------------------|
    A|9999999-/77-----------Repeat…
  • Tuning:Standard
    
    This Song has an electronic intro...
    
    verse:        prechorus:
    e|-----------|-(pt.I)-|--(pt.II)--|
    B|-----------|--------|-----------|
    G|-----6--8--|--6--8--|-10-8-6-8--|
    D|--6--6--8--|--6--8--|-10-8-6-8--|
    A|--6--4--6--|--4--6--|--8-6-4-6--|
    E|--4--------|--------|-----------|
    
    chorus(pt.I):…
  • intro:
    e|-----------------|-----------------|-----------------|-----------------|
    B|-5---5---5---5-7-|-5---5---5---5-7-|-5---5---5---5-7-|-0---------------|
    G|-----------------|-----------------|-----------------|-----------------|
    D|---7---7---7-----|---7---7---7-----|---7---7---7-----|-----------------|
    A|-0---------------|-7---------------|-0---------------|-2---------------|
    E|-----------------|-----------------|-----------------|-----------------|…
  • ***Verse***
    C            G            Am     F
       Got your letter yesterday
    
    C                 G                 Am        F
       The things you didn't say have blown me away
    
    C         G                Am      F…
  • / = slide up
    \ = slide down
    
    For the intro, on the first bar strum the --7--7--7--| softer than the power
                                              --7--7--7--|
    chord. And the same for the 10,14 and the 9  9…
  • Standard Tuning (e,B,G,D,A,E)
    
    Intro\ Slight distortion
    e|-----------------------|----------------|
    B|-----------------------|----------------|
    G|--55-------------------|--55------------|
    D|--33-0-55--------5555--|--33-0-55-------|
    A|-------33-0-555--3333--|-------33-0--5--|…
  • Here's a little story that should be told
    With a whole lotta heart and a little bit of soul
    Well we're all stuck in dead end jobs
    But the party's out the back
    So Baby come on!
    
    Verse 1 (C,G,F,F,G,A)
    
    Tired of the…
  • Intro:
    e|------------------------------------------------------|
    B|--------------------------------0-1-0-----------------|
    G|------------0-----0-----2p0-------0---2-0--0-2\4-2p0--|
    D|------0---2-----2-----2-----------2-------------------|
    A|----2---3-----2-----0---------2---3-------------------|
    E|--3-------------------------3-------------------------|
    
    First…
  • Drop D
    (Make the low E string when holding the 7 fret sound the same as the A string)
    
    ** The number of times you play these is not clear
    *** Hard to find the strum pattern
    First Verse:
    E|-------------------------------------------------------------------------|
    B|-------------------------------------------------------------------------|
    G|-------------------------------------------------------------------------|
    D|-8x64--10x16--12x32--13x16--12x16--10x16---**----------------------------|
    A|-------------------------------------------------------------------------|
    D|-------------------------------------------------------------------------|…
  • intro:
    |--------0--------0--------0-------------------------0-------0-------0--
    |------0---0----0---0----0-------------------------0---0---0---0---0----
    |---13-------13-------13-----13--14--13--11--13--9-------9-------9------
    |-----------------------------------------------------------------------
    |-----------------------------------------------------------------------
    |-----------------------------------------------------------------------…
  • Verse A,A,NC
    
    when i saw you in Verona
    A, A, 
    
    NC
      you sat down i moved over
    F#m, F#m
    NC       E                A  NC   D      
      pretty people but all i saw was you
    A       
     and yes it's you i'm rating
    E 
     to pick the…
  • --------------------------------------------------------------------------
    --------------------------------------------------------------------------
    -------7-7-7-7-5-5-7-7-7-7-------7-7-7-7-5-5-7-7-7-7----------------------
    ---5-5-7-7-7-7-5-5-7-7-7-7---5-5-7-7-7-7-5-5-7-7-7-7----------------------
    ---5-5-5-5-5-5-3-3-5-5-5-5---5-5-5-5-5-5-3-3-5-5-5-5----------------------
    ---3-3-----------------------3-3------------------------------------------
    
    ---5-5-7-7-7-7-5-5-7-7-7-7-4-4-4-7-5-5-5-5-5-7----------------------------
    ---5-5-7-7-7-7-5-5-7-7-7-7-4-4-4-7-5-5-5-5-5-7----------------------------
    ---5-5-7-7-7-7-5-5-7-7-7-7-4-4-4-7-5-5-5-5-5-7----------------------------
    ---5-5-7-7-7-7-5-5-7-7-7-7-4-4-4-7-5-5-5-5-5-7----------------------------
    ---5-5-5-5-5-5-3-3-5-5-5-5-2-2-2-5-3-3-3-3-3-5----------------------------
    ---3-3--------------------------------------------------------------------…
Наверх