Аккорды «Element Eighty»

Element Eighty
Element Eighty - это ню-метал-группа из Техаса, США. Была сформирована в 2000 году и уже через год, в июне 2001-го квартет выпустил свой первый полноформатный альбом "Mercuric" (кстати, как раз восьмидесятый элемент таблицы химических элементов). Также ребята успели отыграть множество концертов на сценах Далласа, и вскоре им предложили контракт несколько известных лейблов. Выбор пал на Universal/Republic Records, и в октябре 2003 года свет увидел их новый альбом с одноимённым названием "Element… Читать полностью... Element Eighty - это ню-метал-группа из Техаса, США. Была сформирована в 2000 году и уже через год, в июне 2001-го квартет выпустил свой первый полноформатный альбом "Mercuric" (кстати, как раз восьмидесятый элемент таблицы химических элементов). Также ребята успели отыграть множество концертов на сценах Далласа, и вскоре им предложили контракт несколько известных лейблов. Выбор пал на Universal/Republic Records, и в октябре 2003 года свет увидел их новый альбом с одноимённым названием "Element Eighty", после чего ребята отправились в турне с Sevendust, Ill Nino, Flaw, 40 Below Summer, Mushroomhead. Также песня "Broken Promises" из этого альбома вошла в список саундтреков к известной компьютерной игре "Need for Speed: Underground", благодаря чему многие услышали эту группу впервые. Спустя какое-то время ребята поняли, что лейбл работает с группой с не очень большим желанием, не снималось никаких видео, и не было никаких намёков на издание нового материала. Это привело к разрыву контракта в 2004-ом году. В это же время басист Рон покидает группу. Но на его место в скором времени приходит Зак Бейтс и заполняет недостающее звено коллектива. После долгих месяцев упорной работы в ноябре 2005-го свет увидел третий релиз "The Bear", изданный на собственном лейбле Texas Cries Records. Отыграв свой последний концерт в новогоднюю ночь в Ridglea, группа распалась. Но уже в 2007-м заявила о своём возвращении и работе над новым альбомом. IV альбом так и не вышел, вследствие этого на их Myspace-странице было написано: "Запись чрезвычайно замедлилась из-за личных проблем". С тех пор они объявили об распаде Element Eighty. Райан Кэрролл в настоящее время играет в основанной группе AdaKaiN, в которую также входит Мэтт Вудс для записи некоторых песен. Скрыть...
Популярные аккорды Element Eighty:
алфавиту | просмотрам | случайно
  • Order:
    
    Intro
    Main riff/chorus
    Verse
    Main riff/chorus
    After chorus riff
    Verse
    Main riff/ chorus
    Interlude
    Verse
    Main riff/chorus
    
    
    Intro
    |----------------|
    |----------------|
    |-6-6-6-6-6-6--6-|
    |-6-6-6-6-6-6--6-|
    |-4-4-4-4-4-4--4-|
    |----------------|
    
    
    Main…
  • Course                                                            2nd
    -----------------------------------------------------------------l----l
    -----------------------------------------------------------------l----l
    -----------------------------------------------------------------l----l
    -----------------------------------------------------------------l----l
    -00-00-00-0000-3-00-00-00-0000-2-00-00-00-0000-3-00-00-00-00-323-l-0~-l
    -00-00-00-0000-3-00-00-00-0000-2-00-00-00-0000-3-00-00-00-00-323-l-0~-l
    pm…
  • Вся песня: G#m B F#   
     
    How far will you go for me till you break 
    I know you will leave me alone again 
    I know you want me to be everything to you 
    but I need something more than this 
     
    Inside of me 
    All my life…
  • Tuning: Drop C (CGCFAD)
    
    
    Intro
    
    D|----------------------------------------------------------------------|
    A|----------------------------------------------------------------------|
    F|----------------------------------------------------------------------|
    C|0-0-0-0---------------------------------------------------------------|
    G|0-0-0-0---------------------------------------------------------------|
    C|0-0-0-0---------------------------------------------------------------|…
  • Intro:
    B |--------------------------------------------------------------------|
    G |---------6 - 4 - 6 - 11 - 10 - 11 - 13------------------------------|
    D |--------------------------------------------------------------------|
    A…
  • This is the rhythem played throughout the song...
    -------------l---------------------------------------l
    -------------l---------------------------------------l
    -------------l---------------------------------------l
    -------------l---2---2---2---2---3---3---2---2---2---l
    -2-22-2-33-2-l-2---2---2---2---3---3---2---2---2---2-l
    -2-22-2-33-2-l-2---2---2---2---3---3---2---2---2---2-l…
Наверх