Аккорды Елена Фролова - Не улетай ввысь

Добавлено: @romashka
Дата добавления: 20 Января 2019г.
Рейтинг:
0.0
Просмотров: 31
Транспонировать - +
Вступление (играется вся песня):
 Asus2                     Asus2/G                      
E|---0-----0---0---0-----0------0-----0---0---0-----0-|
H|-----0-------------0------------0-------------0-----|
G|-5-----5---5---5-----5------5-----5---5---5-----5---|
D|----------------------------------------------------|
A|-0--------------------------------------------------|
E|----------------------------3-----------------------|
 
Asus2/F      Asus4  Asus2/F   E          E7   E        
E|---0-----0-------0-----0------0-----0-------0-----0-|
H|-----0-------3-----0------------0-------3-----0-----|
G|-2-----2---2---2-----2------1-----1---1---1-----1---|
D|----------------------------------------------------|
A|----------------------------------------------------|
E|-1--------------------------0-----------------------|

Asus2                  
Не улетай ввысь,
Asus2/G                 
Не убегай вдаль,
        Asus2/F   Asus4 Asus2/F
Хоть по ночам снись,
  E             E7 E
Нежной тоской жаль

Ранит стрелой мрак,
Вырвет из рук крик
Не уходи так,
Не исчезай вмиг

Слов золотых звон
Перекричит бред
Я сторожу сон
Там, где тебя нет

Не улетай, знай:
Мир без тебя пуст
Даже родной рай
Не оживит чувств

Будет в глуши лет
Жаркий огонь стыть
Там, где тебя нет,
Я не хочу быть

Не улетай ввысь,
Не убегай вдаль,
Хоть по ночам снись,
Нежной тоской жаль

Asus2                  
Не улетай ввысь,
Asus2/G                
Не убегай вдаль
Asus2           
Не улетай...
Asus2/G            
Не убегай...
Asus2       Asus2/G 
Не улета-а-а-ай...

Окончание:
 Asus2                     Asus2/G                     
E|---0-----0---0---0-----0------0-----0---0---0-----0-|
H|-----0-------------0------------0-------------0-----|
G|-5-----5---5---5-----5------5-----5---5---5-----5---|
D|----------------------------------------------------|
A|-0--------------------------------------------------|
E|----------------------------3-----------------------|
comments powered by Disqus
Наверх