Аккорды Елена Ваенга - Двери

Добавлено: @romashka
Дата добавления: 09 Марта 2019г.
Рейтинг:
0.0
Просмотров: 13
Транспонировать - +
Вступление: Bsus2 }x4 
e|---------2-------2-------|
B|-------2-----2-----2-----|
G|-----4-----4---4-----4---|
D|---4-------------------4-|
A|-2-----------------------|
E|-------------------------|

Bsus2
Я не верю, я не верю,
            Em
Что это был вот тот выход, тот самый,
F#7sus4   F#
Я закрыла совсем не те двери,
Bm            B7
И ты остался стоять за дверями,
  Em   F#            Bm Bm/A 
А я, я буду тебя не ждать,
Bm/G#           Em
Я буду не скучать,
F#              Bm  B7          Em
Хотя могу поменять себя на не себя,
    F#            Bm Bm/A
И что я теперь стою,
  Bm/G       Em/C#
И говорю, и пою,
F#              Bsus2
Но я не верю себе.

Bsus2 }x2 
e|---------2-------2-------|
B|-------2-----2-----2-----|
G|-----4-----4---4-----4---|
D|---4-------------------4-|
A|-2-----------------------|
E|-------------------------|

    Bsus2
Вот ты знаешь,
    Bsus2
А ты все, ты все знаешь,
   Em
Ну нет веры тому, кто раз предал,
F#7sus4      F#
Я закрыла, поверь, те двери,
  Bm          B7
И ты остался стоять за дверями,
  Em   F#            Bm Bm/A 
А я, я буду тебя не ждать,
  Bm/G#          Em
И я смогу не скучать,
  F#             Bm B7          Em
Хотя могу поменять, тебя, но не себя,
   F#              Bm Bm/A
И что ты теперь стоишь,
     Bm/G           Em/C#
И ты говоришь, говоришь, 
F#              Bsus2
Но я не верю тебе.

Bsus2 }x2 
e|---------2-------2-------|
B|-------2-----2-----2-----|
G|-----4-----4---4-----4---|
D|---4-------------------4-|
A|-2-----------------------|
E|-------------------------|

    Bsus2
Вот кто знает кому и как надо,
        Em
Кто шаг влево, а кто всегда прямо,
F#7sus4          F#
Я не верю, но я все равно рядом,
Bm             B7
Я так устала такой быть упрямой,
     Em F#           Bm Bm/A 
Ведь я, я могу не понять,
  Bm/G#         Em
И я могу не принять,
  F#            Bm B7          Em
Хотя могу поменять и тебя, и себя,
   F#              Bm Bm/A
И что ты теперь стоишь,
     Bm/G
И ты говоришь, говоришь,
Em/C#               F#
Говоришь, говоришь, говоришь…

Bm B7 Em F# Bm Bm/A

     Bm/G
И ты говоришь, говоришь,
Em                  F#
Говоришь, говоришь, говоришь…

Bsus2 }x2 
e|---------2-------2-------|
B|-------2-----2-----2-----|
G|-----4-----4---4-----4---|
D|---4-------------------4-|
A|-2-----------------------|
E|-------------------------|

  Bsus2
Я верю, я верю,
            Em
Что это был вот тот выход, вот тот самый,
   F#7sus4          F#
Но я открою тебе свои двери,
   Bm            B7
Но я останусь стоять за дверями,
     Em F#           Bm Bm/A 
Ведь я, я могу не узнать,
Bm/G#         Em
Я могу не принять,
  F#            Bm  B7          Em
Хотя могла поменять и себя, и тебя,
    F#              Bm Bm/A
Ну что ты теперь стоишь,
   Bm/G           Em/C#
Ты говоришь, говоришь,
F#               Bm Bm/A
А я не слышу тебя,
    Bm/G          Em/C#
Ты говоришь, говоришь,
    F#7sus4       Bsus2
А я, а я не вижу тебя.

Играть перебором: бас - 4 струна - 3 и 2 вместе - 4 струна.
  F#7sus4  Bm/A   Bm/G#   Bm/G   Em/C#
e|-2-------2--------------------------|
B|-2-------3------3-------3------5----|
G|-4-------4------4-------4------4----|
D|-2-------4------4-------4------5----|
A|-4-------0---------------------4----|
E|-2--------------4-------3-----------|
comments powered by Disqus
Наверх