Аккорды Elley Duhe - Middle of the night

Добавлено: @romashka
Дата добавления: 08 Сентября 2022г.
Рейтинг:
0.0
Просмотров: 19
Транспонировать - +
[Intro Tabs]
 
e||----------------------------|----------------------------|
B||----0---0----0---0---0----0-|----0---0----0---0---0----0-|
G||----------------------------|----------------------------|
D||------9---10---7---9--------|------9---10---7---9--------|
A||--7--------------------10---|--7--------------------10---|
E||----------------------------|----------------------------|
 
e||----------------------------|----------------------------|
B||----0---0----0---0---0----0-|----0---0----0---0---0----0-|
G||----------------------------|----------------------------|
D||------9---10---7---9--------|--7------------7------------|
A||--7--------------------10---|------9---10-------9---10---|
E||----------------------------|----------------------------|
 
[Verse 1]
   C                    Am
I summoned you, please come to me
       Em                      D
Don't bury thoughts that you really want
   C                 Am
I fill you up, drink from my cup
   Em                     D
Within me lies what you really  want
 
 
[Pre-Chorus]
  C           Am
Come, lay me down
            Em
'Cause you know this
            D
'Cause you know this love
 
 
[Chorus]
        C
In the middle of the night
        Am
In the middle of the night
      Em
Just call my name
     D
I'm yours to tame
        C
In the middle of the night
        Am
In the middle of the night
     Em
I'm wide awake
    D                         C
I crave your taste all night long
              Am
'Til morning comes
             Em
I'm getting what is mine
              D
You gon' get yours, oh no, ooh
        C
In the middle of the night
        Am                     Em D
In the middle of the night, oh
 
C Am Em D
 
[Verse 2]
       C                      Am
These burning flames, these crashing waves
      Em             D
Wash over me like a hurricane
   C                Am
I captivate, you're hypnotized
      Em                D
Feel powerful, but it's me again
 
 
[Pre-Chorus]
  C           Am
Come, lay me down
            Em
'Cause I know this
            D
'Cause I know this love
 
 
[Chorus]
        C
In the middle of the night
        Am
In the middle of the night
      Em
Just call my name
     D
I'm yours to tame
        C
In the middle of the night
        Am
In the middle of the night
     Em
I'm wide awake
    D                         C
I crave your taste all night long
              Am
'Til morning comes
             Em
I'm getting what is mine
              D
You gon' get yours, oh no, ooh
        C
In the middle of the night
        Am                     Em D
In the middle of the night, oh
 
Em Em Em Em
 
[Bridge]
      Em
Just call on me, ah
      B
Just call my name
 B
Lie with me in, ah
 
 
[Chorus]
        C
In the middle of the night
        Am
In the middle of the night
      Em
Just call my name
     D
I'm yours to tame
        C
In the middle of the night
        Am
In the middle of the night
     Em
I'm wide awake
    D                         C
I crave your taste all night long
              Am
'Til morning comes
             Em
I'm getting what is mine
              D
You gon' get yours, oh no, ooh
        C
In the middle of the night
        Am                     Em D
In the middle of the night, oh whoa
 
 
[Outro Tabs]
 
e||----------------------------|----------------------------|
B||----0---0----0---0---0----0-|----0---0----0---0---0----0-|
G||----------------------------|----------------------------|
D||------9---10---7---9--------|------9---10---7---9--------|
A||--7--------------------10---|--7--------------------10---|
E||----------------------------|----------------------------|
 
e||----------------------------|----------------------------|
B||----0---0----0---0---0----0-|----0---0----0---0---0------|
G||----------------------------|----------------------------|
D||------9---10---7---9--------|--7------------7------------|
A||--7--------------------10---|------9---10-------9---10---|
E||----------------------------|----------------------------| 
Наверх