Аккорды «Empyrium»

Empyrium
Немецкий проект Empyrium был образован в 1994 году. К его созданию приложили руку мультиинструменталист Маркус Шток, известный также как Ульф Теодор Швадорф, и клавишник Андреас Бах. В 1995-м вышло первое (и единственное) демо, "…Der wie ein Blitz vom Himmel viel…", благодаря которому группой заинтересовались люди из "Prophecy Productions". На следующий год под крышей данного лейбла был издан дебютный лонгплей, "A wintersunset". Этот атмосферно-фолково-металлический (с небольшим блэковым налетом)… Читать полностью... Немецкий проект Empyrium был образован в 1994 году. К его созданию приложили руку мультиинструменталист Маркус Шток, известный также как Ульф Теодор Швадорф, и клавишник Андреас Бах. В 1995-м вышло первое (и единственное) демо, "…Der wie ein Blitz vom Himmel viel…", благодаря которому группой заинтересовались люди из "Prophecy Productions". На следующий год под крышей данного лейбла был издан дебютный лонгплей, "A wintersunset". Этот атмосферно-фолково-металлический (с небольшим блэковым налетом) альбом был посвящен "ошеломляющей красоте природы". Именно природа-матушка вдохновила музыкантов на создание подобного эпического произведения, что можно было увидеть хотя бы из названий песен. Помимо Швадорфа и Баха в записи диска участвовала Надин Молтер (флейта, виолончель), ставшая третьей участницей команды. В 1997 году последовала вторая серия "зимнего заката", "Songs of Moors and Misty Fields". На этом альбоме Швадорф и компания продолжили гнуть свою меланхолично-романтическую линию. Несмотря на то, что блэковые элементы типа скриминга все же остались, на диске наметилась тенденция движения в сторону фолка. В некоторых местах электрические риффы уступили место акустической гитаре, а инструментов вроде флейт и различных свистулек стало заметно больше. Двумя годами позже на свет появилась третья студийная работа Empyrium, обозначившая вторую фазу развития проекта. На этот раз Швадорф и Надин (Бах куда-то исчез) полностью отказались от электроинструментов и ударных. "Where At Night The Wood Grouse Plays" представлял собой полностью фолково-акустический альбом без всяких металлических штучек. С предыдущими релизами его связывала лишь меланхоличная атмосфера да англоязычный вокал с сильным немецким акцентом. Композиции стали намного короче, при этом на "Where At Night The Wood Grouse Plays" наличествовало больше инструментальных фрагментов. Последним треком на альбоме стал акустический римейк песни "When shadows grow longer" с предыдущего диска. Четвертого полноформатника поклонники Empyrium ждали целых три года, и вот, наконец, в 2002-м, предваренный синглом "Drei Auszuge Aus Weiland", он появился в продаже. Хотя "Weiland" был также неметаллическим альбомом, он заметно отличался от своего предшественника. Во-первых, на нем был представлен новый официальный вокалист, Томас Хельм, чей голос можно было услышать еще на "Where at night the wood grouse plays". Во-вторых, в отличие от всех предыдущих релизов все песни были исполнены на немецком языке, а не на английском. В-третьих, альбом вышел в трехдисковом варианте, разбитый на три концептуальных части – "пустыня", "лес", "вода". На "Weiland" местами вновь можно было услышать барабаны и блэкушный скриминг, однако общий фолко-депрессивный настрой все же превалировал. Своим четвертым релизом Empyrium подвели финальную черту в своем творчестве, и после его выхода Швадорф принял решение закрыть проект. 27 сентября 2010 г. можно считать началом новой вехи в истории коллектива. В этот день Prophecy Productions и Швадорф официально объявили о воссоединении Empyrium. Швадорф заявил, что группа работает над новым материалом, но до выпуска полноформатника ещё далеко, т.к. Empyrium не собирается торопиться с изданием новых песен в ущерб их качеству. Новая композиция группы, "The Days before the Fall", вошла в сборник "Whom The Moon A Nightsong Sings", наряду с новыми и раритетными треками таких исполнителей, как Ulver, Les Discrets, October Falls, Tenhi, Nest и др. 10 июня 2011 г. на ежегодном фестивале Wave-Gotik-Treffen в Лейпциге состоялось первое живое выступление группы. Вместе со Швадорфом и Хельмом на сцену вышли Neige и Fursy Teyssier из Alcest, Eviga из Dornenreich, виолончелист Christoph Kutzer из Remember Twilight. На скрипке играла Aline Deinert (Neun Welten), а за ударную установку сел Allen B. Konstanz (The Vision Bleak). Второй в истории Empyrium выход на сцену запланирован на 21 января 2012 г. Концерт должен состояться в немецком городе Бохум. 2014 - The Turn Of The Tides 2015 - The Mill (EP) Скрыть...
Популярные аккорды Empyrium:
алфавиту | просмотрам | случайно
  • -Intro-   
                                                            -Repeat 3 Times-
    |-----------------------------------------------------------------------------|
    |-----------------------------------------------------------------------------|
    |o---------------------------------------------------------------------------o|
    |o--4h5p4-2--2-4-5-2--4h5--------5/7-7-7/9-9---------5-5-4-4-----------------o|
    |-------------------------3--3-3--------------2--2-2--------------------------|
    |-------------------------------------------------------------3--3-3-3-5--5-5-|…
  • NORMAL TUNING
    
    
    INTRO
    
         GTR 1                                                       x3
    |--1----------|--1-------------|--3-------1-----------------------|
    |--3---5---3--|--3---5-------3-|--3-------3---------5---------3---|
    |--2---5---3--|--2---5-------3-|--2-------2---------5---------3--o|
    |--0---5---3--|--0---5-------3-|--0-------0---------5---------3--o|
    |------3---1--|------3-------1-|--------------------3---------1---|
    |-------------|----------------|----------------------------------|
    |…
  • Tune Gtr to E
    
    
    ...from silence
      Gtr I
    G|-7-7-6-6-7-9-7-6-7-6----6-|
    D|----------------------9---|
     |
     |Gtr II
    G|-----4-------4-------2-------2---|
    D|---4---4---4---4---2---2---2---2-|
    A|-2-------2-------0-------0-------|
    
    Riff…
  • Tunning E B G D A E
    
    
    Piano Intro
    
    Then
    GTR 1
    |-------------------------------------------------------------------|
    |-------------------------------------------------------------------|
    |-7--------7--------------------------------------------------------|
    |-7--------7--------7----------------5------------------------------|
    |-5--------5--------7----------------5------------------------------|
    |-------------------5----------------3------------------------------|
    GTR…
  • I------------------------------------------------------------------------I
    I--------------------------------------------3--------------0------------I
    I-----5-----5-------------5--------------4-----4---4------0---0--4h5-4h5-I
    I---7-----7---------7-7-----7---7------5---5-----5------2----------------I
    I-0-----0-----0-7-8-----8-----8------0-----------------------------------I
    I------------------------------------------------------------------------I
    
    I------------------------------------------------------------------------I
    I--------------------------------------------3---------------------------I
    I-----5-----5-------------5--------------4-----4---4-------------4h5-4h5-I
    I---7-----7---------7-7-----7---7------5---5-----5------2-~-~------------I
    I-0-----0-----0-7-8-----8-----8------0-----------------------------------I
    I------------------------------------------------------------------------I…
  • Standard tuning, 3/4
    
    
    Acoustic guitar plays
    
    Figure 1:
           Am          D                        Dm          A   Asus2
        E |------0-----2-3-2-0---0-|           |------5-----------------|
        B |1---1---1---------------|…
  • Intro Gtr I
    |-----------|
    |-----------|
    |----7-8-10-|
    |-10--------|
    |-----------|
    |-----------|
    |
    | Gtr I x 2  0:01 - 0:17 
    |-------------------------3-------------------------------------------|
    |-8---8h9p8-6---6h8p6-4-----3-----------------------------------------|
    |------------------------------0--5-7-8--0--7-8-10--10--7---8-7-5--5--|
    |---------------------------------------------------------------------|
    |---------------------------------------------------------------------|
    |---------------------------------------------------------------------|
    |
    |…
  • Intro
    
     Gtr1 (w/distortion)
    |-------------------------------------------------------------------------|
    |-----------------------------------------------/12-----------------------|
    |--12---11-------12--11-11--12-11-------12---12---------12--7-7--9-9-----|
    |------------9----------------------9----------------9------------------9-|
    |-------------------------------------------------------------------------|
    |-------------------------------------------------------------------------|
    |…
  • -INTRO (ACUSTIC GUITAR)-
    |--------------------|-------------------|------------3-------|--------------------|
    |----------3---------|----------6---8-6--|----------4---4-----|----------6---8-6---|
    |--------4---4-------|--------7---7------|--------5-------5---|--------7---7-------|
    |------4-------4-----|------7------------|------5-----------5-|------7-------------|
    |----2-----------2---|----5--------------|--5-3---------------|----5---------------|
    |--0-----------------|--0----------------|--------------------|--0-----------------|
    
    
    -FLUTE-
    |---------------------|------------------------|--------------------|---------------------|
    |------17-15~--14-12~-|------------------------|------17-15~--17-19~|--19~--19-20-19-17~--|
    |-12~-----------------|-11~--11-12-11-10-11-12~|-12~----------------|---------------------|
    |---------------------|------------------------|--------------------|---------------------|
    |---------------------|------------------------|--------------------|---------------------|
    |---------------------|------------------------|--------------------|---------------------|
    
    
    -EN…
  • -INTRO-
    |-----------------|
    |-----------------|
    |-----------------|
    |-7------7~--(7)-|
    |-7---------------|
    |-5---------------|
    And Many a Moon Shall Rise...
    
    
    |----------------------------------------|-----------------------------------|
    |----------------------------------------|-----------------------------------|
    |----------------------------------------|o---------------------------------o|
    |-7-777--10-101010--9-99-9h10p9p7--7-777-|o---------------------------------o|
    |----------------------------------------|-7-777--7h8-888--7-777--7h8-5-7----|
    |----------------------------------------|-----------------------------------|
    
    |----------------------------------------|-----------------------------------|
    |----------------------------------------|-----------------------------------|
    |----------------------------------------|-----------------------------------|
    |-7-777--10-101010--9-99-9h10p9p7--7-777-|-----------------------------------|
    |----------------------------------------|-7-777--7h8-888--7-777--7h8-5-7----|
    |----------------------------------------|-----------------------------------|
    
    |----------------------------------|
    |----------------------------------|
    |----------------------------------|
    |-----------------7-777--7-777--7~-|
    |-7-777--7h8-888-------------------|
    |----------------------------------|
    
    
    -VERSE…
Наверх