Аккорды Enjoykin - Идущий к реке

Добавлено: @romashka
Дата добавления: 18 Сентября 2018г.
Рейтинг:
0.0
Просмотров: 37
Транспонировать - +
Куплет:
Am 
Вспыхнуло солнце закатом.
Em
На дворе благодать.
F
Мир абсолютно понятен,
Am
Но тебе не понять.
Небо целуют кометы.
Ты смеёшься опять.
Мир абсолютно понятен,
Но тебе не понять.

Припев:
F                        G
Я иду, как глубокий старец, 
             Am
Узривший вечное.
Любоваться осенним закатом
На берегу.
В сокровенном блаженстве
Устремлён в бесконечное.
Наслаждаться прекрасным осенним закатом
Иду.

Вспыхнуло солнце закатом.
На дворе благодать.
Мир абсолютно понятен,
Но тебе не понять.
На-на-на-на-на-на-на-на.
Ты смеёшься опять.
На-на-на-на-на-на-на-на.
Но тебе не понять.

Припев.

Соло на саксофоне:
e --------0---5----|--7-----8-----0-----|----------------| x2
B ----1------------|--------------------|----------------|
G 2----------------|--------------------|----------------|
D -----------------|--------------------|----------------|
A -----------------|--------------------|----------------|
E -----------------|--------------------|----------------|

e ------------------|----------------------|----------------| x2
B --------0---5-----|----7----8----0-------|----------------|
G ----0-------------|----------------------|----------------|
D 2-----------------|----------------------|----------------|
A ------------------|----------------------|----------------|
E ------------------|----------------------|----------------| 

e ------------------|----------------------|-----------------|
B ------------------|----------------------|-----------------|
G -------2---7------|----9---10------------|-----------------|
D 0--3--------------|---------------7------|-----------------|
A ------------------|----------------------|-----------------|
E ------------------|----------------------|-----------------| 

e -------------------|------------------------|----------------|
B -------------------|------------------------|----------------|
G ------9---11-------|12----14----------------|----------------|
D 7--10--------------|---------------10-------|----------------|
A -------------------|------------------------|----------------|
E -------------------|------------------------|----------------| 

e --------0---5-----|--7-----8-----0-------|-------------------|
B ----1-------------|----------------------|-3--1---3--1--0----|
G 2-----------------|----------------------|-------------------|
D ------------------|----------------------|-------------------|
A ------------------|----------------------|-------------------|
E ------------------|----------------------|-------------------|

comments powered by Disqus
Наверх