Аккорды Эпидемия - Паладин

Добавлено: @romashka
Дата добавления: 25 Июня 2021г.
Рейтинг:
0.0
Просмотров: 194
Транспонировать - +
Вступление 
1- Часть - Аккорд E
h - молоточек (удар пальцем по струне)

5--------8----7----5h7----8--7--5------------ - 4 раза
6--0--0----0----0------0--------8--7--5--7---

2- Часть - Am Dmadd9/A Em Fmaj C Dm Em F - 2 раза

4--------2-----2--------3--------3-----3--3-------- на аккордах Am Dmadd9/A
5--0--0--0--0--0--0--0--0--0--0--0--0--0--0--0--0--
6--------------------------------------------------


4-------------------------------------------------- на аккордах Em F
5--------2-----2--------3--------3-----3--3--------
6--0--0--0--0--0--0--0--1--1--1--1--1--1--1--1--1--


4--------5-----5--------7--------7-----7--7--------- на аккордах C Dm
5--3--3--3--3--3--3--3--5--5--5--5--5--5--5--5--5---
6---------------------------------------------------
        
4--------9-----9--------10------------------------------ на аккордах Em F
5--7--7--7--7--7--7--7--8-----10--9--10--12--10--9--10--
6-------------------------------------------------------

4--------3-----2-----0--2-------------------------------
5--0--0-----0-----0--------0--3--2--3--5--3--2--3------- - 2 раза
6-------------------------------------------------------

Куплет       
Am        D         Em          F
Тут все обречены, сжимается кольцо
C            Dm         Em         F
С окрестных кладбищ вереницы мертвецов
Am       D            Em        F
Их не повергнуть, невозможно убежать
C            Dm        Em             F
Ты помнишь, как тебя сумела спрятать мать

Бридж
Amadd9  Amadd9/G  Am/F#
Под половицу, где тайник
        F     E    Amadd9
Покуда зомби не проник
       Amadd9/G   Am/F#
Осыпав двери порошком
           F       E     F#dim  
Чей запах мёртвым не знаком
       E  
Не знаком
 
Припев
     Am  
Беспощадною косой
      Dm/F
Полоса за полосой
          F        D/F#
В чёрной рясе госпожа
     G      E
Собирает урожай
          F              G
Тот, кто нежить в бой ведёт
    Am           G
От твоей руки падёт
     F       D/F#
И останется один
           G   E   
В чистом поле  
      Am
Па ла дин!

Проигрыш
Am Dmadd9/A Em Fmaj C Dm Em F - 2 раза

Am            D          Em         F
Спустя три дня тебя нашёл старик-монах
C         Dm                Em         F
Отвёл в небесный храм, что высоко в горах
Am       D             Em              F
Перед лицом сэнсэй держал хрустальный шар
C       Dm        Em         F
В тебе увидел силу и особый дар
 
Amadd9   Amadd9/G    Am/F#
В молитве путь свой отыскал
           F     E   Amadd9
Но и про меч не забывал
         Amadd9/G   Am/F#
Нашёл на годы новый кров
         F        E    F#dim  
И превзошёл всех мастеров
      E    
Мастеров
 
Припев
     Am  
Беспощадною косой
      Dm/F
Полоса за полосой
          F        D/F#
В чёрной рясе госпожа
     G      E
Собирает урожай
          F              G
Тот, кто нежить в бой ведёт
    Am           G
От твоей руки падёт
     F       D/F#
И останется один
           G   E   
В чистом поле  
      Am
Па ла дин!

Проигрыш
Am Dmadd9/A Em Fmaj|Fadd9 C Dm Em F - 2 раза

Соло
C G Am F Em Am F G - 3 раза

Проигрыш
Am Dmadd9/A Em Fmaj C Dm Em F
 
Am         D           Em          F
Ты помнил всё и возвратился в край родной
C        Dm            Em          F
Сумел найти того, кто был всему виной
Am       D              Em         F
Кто потревожил предков, их прервал покой
C      Dm            Em        F
Идёт тебе навстречу чёрною тропой
 
Amadd9 Amadd9/G    Am/F#
 Опустит ночь своё крыло
       F    E     Amadd9
И на охоту выйдет Зло
Amadd9 Amadd9/G   Am/F#
 Не ведая, что паладин
       F     E    F#dim  
Уже стоит на их пути
         E
Им не уйти!
 
Припев
     Am  
Беспощадною косой
      Dm/F
Полоса за полосой
          F        D/F#
В чёрной рясе госпожа
     G      E
Собирает урожай
          F              G
Тот, кто нежить в бой ведёт
    Am           G
От твоей руки падёт
     F       D/F#
И останется один
           G   E   
В чистом поле  
      Am
Па ла дин!

Концовка
Am Dmadd9/A Em Fmaj|Fadd9  C Dm Em F 

Аккорды Amadd9 Amadd9/G Am/F - условные.
Наверх