Аккорды Eric Clapton - Layla Unplugged

Добавлено: @romashka
Дата добавления: 17 Августа 2020г.
Рейтинг:
0.0
Просмотров: 38
Транспонировать - +
[Intro]
Dm  Bb  C  Dm   x5
Dm  Bb  C  A C
                 Dm        Bb          C     Dm      Dm         Bb          C     Dm      Dm
e|-----------------|-----------------|------------------|-----------------|------------------|
B|-----------------|---3-------------|------------------|---3-------------|------------------|
G|---------------2-|---2---3---3-3---|-5-5-5-2-------2--|---2---3---3-3---|-5---5-2-------2--|
D|---------------0-|---0---3---3-3---|-5-5-5-0-------0--|---0---3---3-3---|-5---5-0-------0--|
A|-----------0-3---|-----3-1---1-1---|-3-3-3-----0-3----|-----3-1---1-1---|-3-0-3-----0-3----|
E|-----------------|-----------------|------------------|-----------------|------------------|
   1 + 2 + 3 + 4 +   1 + 2 + 3 + 4 +   1 + 2 + 3 + 4 +    1 + 2 + 3 + 4 +   1 + 2 + 3 + 4 +
             D D D     U D D   U D     D U D D   D D D      U D D   U D     D D D D   D D D
                  Dm cont. Bb          C     Dm
                  e|-----------------|------------------|-----------------|------------------|
                  B|---3-------------|------------------|-----------------|------------------|
                  G|---2---3---3-3---|-5-5-5-7----------|-----------------|------------------|
                  D|---0---3---3-3---|-5-5-5-7---SOLO OR CONTINUE PLAYING MAIN RIFF----------|
                  A|-----3-1---1-1---|-3-3-3-5----------|-----------------|------------------|
                  E|-----------------|------------------|-----------------|------------------|
                     1 + 2 + 3 + 4 +   1 + 2 + 3 + 4 +    1 + 2 + 3 + 4 +   1 + 2 + 3 + 4 +
                       U D D   U D     D U D D

[Verse 1]
C#m7                           G#7
 What will you do when you get lonely?
C#m7   C       D       E    
No one waiting by your side
F#m         B           E               A
You've been runnin' and hiding much too long
F#m           B                 E
You know it's just your foolish pride

[Chorus]
A     Dm  Bb
Layla
C            Dm             Dm  Bb
Got me on my knees, Layla
    C               Dm           Dm  Bb
I'm beggin' darling please, Layla
C                 Dm               Dm  Bb  C  A C
Darling won't you ease my worried mind?

   Dm    Bb          C     Dm      Dm         Bb          C     Dm      Dm
e|-----------------|------------------|-----------------|------------------|
B|-3-3-------------|------------------|---3-------------|------------------|
G|-2-2---3---3-3---|-5-5-5-2-------2--|---2---3---3-3---|-5-5-5-2-------2--|
D|-0-0---3---3-3---|-5-5-5-0-------0--|---0---3---3-3---|-5-5-5-0-------0--|
A|-----3-1---1-1---|-3-3-3-----0-3----|-----3-1---1-1---|-3-3-3-----0-3----|
E|-----------------|------------------|-----------------|------------------|
   1 + 2 + 3 + 4 +   1 + 2 + 3 + 4 +    1 + 2 + 3 + 4 +   1 + 2 + 3 + 4 +
   D U D D   U D     D U D D   D D D      U D D   U D     D U D D   D D D
Dm cont. Bb          C     Dm      Dm         Bb          C     
e|-----------------|------------------|-----------------|------------------|
B|---3-------------|------------------|---3-------------|------------------|
G|---2---3---3-3---|-5-5-5-2-------2--|---2---3---3-3---|-5-5-5------------|
D|---0---3---3-3---|-5-5-5-0-------0--|---0---3---3-3---|-5-5-5------------| 
A|-----3-1---1-1---|-3-3-3-----0-3----|-----3-1---1-1---|-3-3-3---0---3----|
E|-----------------|------------------|-----------------|------------------|
   1 + 2 + 3 + 4 +   1 + 2 + 3 + 4 +    1 + 2 + 3 + 4 +   1 + 2 + 3 + 4 +
     U D D   U D     D U D D   D D D      U D D   U D     D U D   D   D

[Verse 2]
C#m7                      G#7
I tried to give you consolation
C#m7     C      D       E    
Your old man he let you down
F#m    B       E                 A
Like a fool, I fell in love with you
F#m           B                  E 
You turned my whole world upside down

[Chorus]
A     Dm  Bb
Layla
       C            Dm            Dm  Bb
You've got me on my knees, Layla
    C               Dm            Dm  Bb
I'm beggin' darling please, Layla
C                 Dm                    Dm  Bb  C  A C
Darling won't you ease my worried mind?

[Verse 3]
C#m7                    G#7
Make the best of the situation
C#m7     C       D    E    
Before I finally go insane
F#m          B         E            A
Please don't say we'll never find a way
F#m     B                E
Tell me all my love's in vain

[Chorus]
A     Dm  Bb
Layla
       C            Dm           Dm  Bb
You've got me on my knees, Layla
    C               Dm            Dm  Bb
I'm beggin' darling please, Layla
C                 Dm                    Dm  Bb  C  Dm 
Darling won't you ease my worried mind?

   Dm  Bb
Layla
       C            Dm           Dm  Bb
You've got me on my knees, Layla
    C               Dm            Dm  Bb
I'm beggin' darling please, Layla
C                 Dm                    Dm  Bb  C  Dm
Darling won't you ease my worried mind?

[Instrumental]
Dm  Bb  C  Dm  x8

[Chorus]
   Dm  Bb
Layla
       C            Dm           Dm  Bb
You've got me on my knees, Layla
    C               Dm            Dm  Bb
I'm beggin' darling please, Layla
C                 Dm                    Dm  Bb  C  Dm
Darling won't you ease my worried mind?

   Dm  Bb
Layla
       C            Dm           Dm  Bb
You've got me on my knees, Layla
    C               Dm            Dm  Bb
I'm beggin' darling please, Layla
C                                   Dm   
Darling won't you ease my worried mind?

Наверх