Аккорды «Everclear»

Everclear
Группа Everclear была основана в 1992 г. в г. Портленд, штат Орегон, США. Группа откровенно подражала Nirvana, даже вокалист Алексакис красил волосы в белый цвет, как Курт Кобейн. После выпуска мини-альбома ''White Trash Hell' они подписали контракт с Capitol Records через Гари Герша (Gary Gersh), который вел дела Nirvana и Sonic Youth на фирме Geffen Records. В 1995 г. вышел их дебютный на этой фирме альбом Sparkle and Fade, заслуживший много похвал и имевший коммерческий успех. Группа Everclear была основана в 1992 г. в г. Портленд, штат Орегон, США. Группа откровенно подражала Nirvana, даже вокалист Алексакис красил волосы в белый цвет, как Курт Кобейн. После выпуска мини-альбома ''White Trash Hell' они подписали контракт с Capitol Records через Гари Герша (Gary Gersh), который вел дела Nirvana и Sonic Youth на фирме Geffen Records. В 1995 г. вышел их дебютный на этой фирме альбом Sparkle and Fade, заслуживший много похвал и имевший коммерческий успех. Скрыть...
Популярные аккорды Everclear:
алфавиту | просмотрам | случайно
  • Lyircs:
    
    Father of mine 
    Tell me where have you been 
    You know I just closed my eyes 
    My whole world disappeared 
    Father of mine 
    Take me back to the day
    When I was still your golden boy 
    ack before you went away…
  • clean channel on guitar
    
    Intro and start of Verse 1:
    e-------|-------------|------
    b-------|------x3-----|------
    g-------|-------------|------
    d--5-5--|-5-5-5-5-5-5-|------  x2
    a--5-5--|-5-5-5-5-5-5-|------
    e--3-3--|-3-3-0-0-3-3-|------
    
    e----------------------------------------------------
    b----------------------------------------------------
    g----------7-7--7-7-9-9-5-5--5-5---------------------
    d--5-5-5-5-7-7--7-7-9-9-5-5--5-5-7-7-5-5--5-5-5-5-5--
    a--5-5-5-5-5-5--5-5-7-7-3-3--3-3-7-7-5-5--5-5-5-5-5--
    e--3-3-0-0-----------------------5-5-3-3--3-3-0-0-3--
    
    e-------|-------------|------
    b-------|------x3-----|------
    g-------|-------------|------
    d--5-5--|-5-5-5-5-5-5-|------…
  • Intro:
    e:-4-4-4-4-4-4-4-4-10--10--10-10---10--10--10-10-----|
    B:--6---6---6---6----12--12-----12---12--12-----12---|
    G:0---0---0---0---0----------0----0----------0-------|
    D:---------------------------------------------------|
    A:---------------------------------------------------|
    E:---------------------------------------------------|
    
    
    verse:
    e:10-10-10-10-10-3-3-3-3-35-5-5-5-53-3-3-3-310----|Back…
  • PART 1
    
    G  I---------------------------I
    D  I.---------333--------000--.I     PLAY 10 X
    A  I.--3-3-3-------0-0-0------.I
    E  I--------------------------.I
    
    
    PART 2
    
    G  I------------------------------------I
    D…
  • G - Dsus - C - D (Intro and Verse)
    
    I close my eyes when I get too sad
    I think thoughts that I know are bad
    Close my eyes and I count to ten
    Hope it's over when I open them
    
    I want the things that I had before
    Like…
  • e-11---11----12----11
    b---12----12----12---
    g--------------------
    d--------------------
    a--------------------
    e--------------------
    
    
    GUITAR 1 (acoustic)
    e------------------------------------------------------
    b-4~---------------------------------------------------
    g-4~---------------------------------------------------
    d-4~---------------------------------------------------
    a-2~---------------------------------------------------
    e------------------------------------------------------
    
    
    Guitar…
  • (strings)
    You Seem To Make The Sam Mistakes Everyday
    Sometimes Its Hard To Open Your Eyes
    You Want To Be The Only Cake on the table
    Yeah You Say you don’t like surprises
    You Want to Find a pretty place you can stay
    
    Yeah…
  • Intro: AA - DD - AA (x4)
    
    
    Verse 1: AA - DD - AA
       I know where you go......
    
    Post Verse / Pre Chorus 1: Bm - D - AA - DD - AA (x2)
       Yes I know where you go.....
    
    
    Verse 2: AA - DD - AA
        I know how you feel.....
    
    Post…
  • chords: (there are basically 4)
    *the strings are in order from bottom to top (1-6)
    
    Db: 0-9-10-11-11-0
    Gb: 0-2-3-4-4-0
    Ab: 0-4-5-6-6-0
    Cb: 0-7-8-9-0-0
    
    
    verse (it goes in a similar pattern the whole song)
    Db_____________________Gb
    Loppy…
  • Chords:
    
    A  X02X20
    B  X25X52
    D  X68X86
    C# X57X75
    
    
       A 
    Na
    A              B                 A         
    Never Been Here Never Comin Back
                       B                     D             A
    Never Wanna Think about the…
  • Standard Tuning
    
    
    [Intro]			    [end of intro]		
           G				G
     e------------------------||---------------------|		
     B------------------------||---------------------|	
     G------------------------||---------------------|…
  • Intro
    e|-----------| 
    B|o---------o|
    G|---9-6-9---|
    D|---9-6-9---|
    A|o--7-4-7--o|
    E|-----------|
    
    
    Main Riff			Main Riff Variation
    e|------------------|	e|-----------|
    B|o----------------o|   B|o---------o|
    G|----6-6----6/5/4--|	G|----6/5/4--|
    D|--4-6-6----6/5/4--|	D|--4-6/5/4--|
    A|o-4-4-4----4/3/2-o|…
  • TUNE DOWN 1/2 STEP 
    
    
    Intro:
    
    Eb -----------------------------
    Bb -----------------------------
    Gb -----------------------------
    Db -----------------------------
    Ab -----------------------------
    Eb -3-3-3-1--3-3-3-1-3-3-4-4-3-3
    
    Eb…
  • Intro
    
    e|---------------------
    b|---------------------
    g|----------------2----
    d|--------1--3------3--
    
    
    Main Riff
    
    e|----------------------------------------------
    b|----------------------------------------------
    g|----------------------------------------------
    d|-----------------------------4/6---6-6-6------
    a|------------------6h7-------------------------
    E|-----------6h7--------------------------------
    
    e|-----------------------------------------------------
    b|-----------------------------------------------------
    g|-----------------------------------------------------
    d|-------------------------4/6-------------------------
    a|------------------6h7--------7-7-7-------------------
    E|-----6h7---------------------------------------------…
  • Accoustic Guitar With Capo on 4th Fret
    
    e-----2-2-----2-2-----2-2
    b-3-3-0-0-3-3-0-0-3-3-0-0
    g-0-0-----0-0-----0-0----
    d------------------------
    a------------------------
    e------------------------
    
      There is always one in…
  • G|------------------------|
    D|------------------------|                    3 X
    A|--4--4--4--4h6--6--6----|
    E|------------------------|
    
    
    Main Riff (play 4 times)
    
    G|---------------------------------------------------------------------------------------|
    D|---------------------------------------------------------------------------------------|
    A|--4--4--4h6--6--6--6-------------------------------------------------------------------|
    E|------------------------5--5--5--5h7--7--7-----3--3--3h6--6--6-----3--3--3h4--4--4-----|
    
    
    G|------------------------|
    D|------------------------|…
  • e---------------------
    b---------------------
    g---------------------
    d-11-11-11-11-11-11-11
    a--------------------- Play This 4 Times
    e-9--9--9--9--9--9--9-
                          Its A Beautiful 
    
    e----------------------7--9
    b--------------------------
    g-10-10-10-10-10-10-10-----
    d-11-11-11-11-11-11-11-----
    a-11-11-11-11-11-11-11-----
    e-9--9--9--9--9--9--9------…
  • ALL STRINGS TUNED DOWN A HALF STEP
    
    
    Intro Am G D
    
    
    Verse 1 (Accousitc)
    
    Eb--------------3-3-3
    Bb--------------3-3-3
    Gb--------------2-2-2
    Db----0-0-------0-0-0
    Ab-3-------3b-0------
    Eb-------------------
    
    
    Chorus 1 (Clean…
  • e|----------------------------------------------------|
    B|----------------------------------------------------|
    G|-5-7-4---5-5-7-7-7-4----5-5-7-7-7-4----5-5-7-7-7-4--|
    D|-5-7-4---5-5-7-7-7-4----5-5-7-7-7-4----5-5-7-7-7-4--|
    A|-5-7-5---5-5-5-5-7-5----5-5-5-5-7-5----5-5-5-5-7-5--|
    E|----------------------------------------------------|…
  • ALL STRINGS TUNED DOWN A HALF STEP
    
    Eb|------------------------------------
    Bb|------------------------------------
    Gb|------0---------0---------------0---
    Db|---9----------9-------------11------
    Ab|-7------7--10-----10/----12-------12
    Eb|------------------------------------…
  • Intro:
    
    < D D  D D C C D D > do that 4 times then:
    
    < D D C C B B  B B A A D D > do that twice then it goes:
    
    < D D C C B B  B B A A G F > (Art picks the F and G for 4 counts each)
    
    -For the verses 1 and 2, Art plays the…
  • The Spacy Intro:
    e---
    b---
    g---
    d---
    a---
    e-11
    
    
    Guitar 1
    e-------------------------------
    b-------------------------------
    g-------------------------------
    d-4-4-4-4-4-4-4-4-4-4-4-4-4-4-4-
    a-4-4-4-4-4-4-4-4-4-4-4-4-4-4-4-
    e-2-2-2-2-2-2-2-2-2-2-2-2-2-2-2-
    pm.............................…
  • e-----15----------
    b--------12----15-         repeat this for first 20 sec.
    g-12--------------   
    
    
    
       C     G      C 
    oooooooo Yeah
       Em7    C     G
    Oh
       C    Em7     C
    oooooo yeah yeah
    G            C…
  • ALL STRINGS TUNED DOWN 1/2 step!
    
    HIGH TO LOW (Eb Bb Gb Db Ab Eb)
    
    All Chords are written with respect to that tuning 
    		(ie A becomes G#)
    
    
        F#    F E     F F#
    eb|----------------------| x6 (Play the end F# only once…
  • Intro/Verse 1
    
    Riff 1
        C             F(1)     E         A             F(1)       E
    e|-----------------------------------------------------------------------|
    B|o-----5--------------10---------9-------5--------------10----------9--o|
    G|----------5---------------------------------6--------------------------|
    D|-----------------------------------------------------------------------|
    A|o-3-----------3-8--------8/7---------------------8----------8/7-------o|
    E|-----------------------------------5-----------5-----------------------|
    
    Never…
  • intro (strum slowly, hitting each string)
    e|----------------
    b|--------0-------
    g|---0----2-------
    d|---2----2-------
    a|---2----0-------
    E|---0------------
    
    
    BASSLINE
    g|-------------------------------
    d|-------------------------------
    a|-------------------------------
    e|--0--0----0--0---0h3----0--0---
    
    
    main…
  • e|-----8----------------8---------------------------
    b|5---5---5---5-5-5-5-5---5---5---------------------
    g|6---6---6---6-6-6-6-6---6---6---------------------
    d|7---7---7---7-7-7-7-7---7---7---------------------
    a|--------------------------------------------------
    e|--------------------------------------------------
    
    
    verse…
  • Intro - This is also riff one for the verses, distorted
    s= slide	b= bend
    
    E---10--10---7---7---10--10---7---7---|
    B----8-------8---8----8-------8---8---|		Repeat and repeat
    G-------------------------------------|
    D-------------------------------------|
    A-------------------------------------|
    E-------------------------------------|
    
    
    Verse…
  • ALL STRINGS TUNED DOWN A HALF STEP
    
    (INTRO PLAY 2 TIMES)
    GUITAR 1
    Eb-0-0-0-0-0-0-0-0-0-0-0-0-0-0-0-0-0-0-0-0-0-0-0-0-0-0-0-0-0-0-0-0
    Bb-9-9-9-9-9-9-9-9-7-7-7-7-7-9-7-7-5-5-5-5-5-7-5-5-2-2-2-2-2-0-0-2
    Gb----------------------------------------------------------------
    Db----------------------------------------------------------------
    Ab----------------------------------------------------------------
    Eb----------------------------------------------------------------…
  • Intro:
    -------------------------------------------------------------------|
    -------------------------------------------------------------------|
    -------------------------------------------------------------------|
    -------------------------------------------------------------------|
    -------------------------------------------------------------------|
    -0-2-2-2-2-0-0-0-0-2-2-2-2-0-0-0-0-2-2-2-2-0-0-0-0-2-2-2-2-0-0-----|
    
    
    Verses
    -------------------------------------------------------------------|
    -------------------------------------------------------------------|
    -------------------------------------------------------------------|
    -------------------------------------------------------------------|
    ----0-0-0-0-----0-1-2----------------------------------------------|
    -2-------------2---------------------------------------------------|
    
    Repeat…
  • Guitar 1
    e-7-7-7-7-7-7-7-
    b-X-X-X-X-X-X-X-
    g-4-4-4-4-4-4-4-
    D---------------
    A---------------
    E---------------
    
    Guitar 2
    E------------
    B------------
    G------------
    d-9-9-9-9-9-9
    a-9-9-9-9-9-9
    e-7-7-7-7-7-7
    
      All The People…
  • -----------------------------------
    -----------------------------------
    -----------------------------------
    -6-6-6-6-6-6-6-6-6-6-6-6-6-6-------
    -6-6-6-6-6-6-6-6-6-6-6-6-6-6-------
    -4-4-4-4-4-4-4-4-4-4-4-4-4-4-------
    p.m.........................
    Davids…
  • (Bass Intro (and continuing under verse))
    G|---------------------------------| x4
    D|-----0-2-0-----------0-2-0-------|
    A|---2-------2-0-2---2-------2-0---|
    E|-0---------------0-------------3-|
    
       E       D#     E
    e|----------------------------------|
    B|-9~------8-8-8-/9-----------------|
    G|-9~------8-8-8-/9-------pick…
  • (W/Heavy Distortion)
    G|-----------------|
    D|-----------------| Repeat 3 times
    A|--4-4-4-6-6-6-6--|
    E|-----------------|
         Db     Eb
    
    
    Main Verse
    
    (W/Heavy Distortion)
    G|-----------------------------------------------------|
    D|-----------------------------------------------------|…
  • ALL STRINGS TUNED DOWN 1/2 STEP
    
    eb -5--------------------------------------------
    Bb -6--------------------------------------------
    Gb -7--------------------------------------------
    Db -7--------------------------8-8-8-8-8-8-8-8-8-
    Ab…
  • Intro Guitar 1 (Slightly Distorted)
    e|--3~-2~-2~-3~~~~--|
    B|--3~-2~-3~-4~~~~--|
    G|--4~-3~-4~-5~~~~--| After C let it feedback
    D|--5~-4~-4~-5~~~~--|
    A|--5~-4~-2~-3~~~~--|
    E|--3~-2~-----------|
        G  F# Bb C
    
    
    Bass (Distorted)
    G|---------------------------------------------|
    D|---------------------------------------------|…
  • Guitar 1
    
    e-----15-------15-
    b---------12------ repeat through-out song
    g--0--------------
    
    Guitar 2
    
    e----10---------10-
    b--------12--------   repeat through out song
    g--0---------------
    
    Guitar 3
    
    e------------------------------------------------
    b---------------------------3--------------------
    g---------------------------0-----------0-0-2-2-0…
  • -|-5-5--5--------5-5-5-5-5-5-5-5-5-5-5-5--|-----------------------------------
    -|-7-7--5--------7-7-7-7-5-5-5-5h7-7-7-7--|-----------------------------------
    -|-7-7--7--------7-7-7-7-7-7-7-7-7-7-7-7--|-----------------------------------
    -|----------------------------------------|-----------------------------------
    -|----------------------------------------|-----------------------------------
    -|----------------------------------------|-----------------------------------
    G1.…
  • Intro: |G |A C |G |A C |
    
    
       G B
       Guess who just got back today?
       C E
       Those wild-eyed boys that had been away
       B E
       Haven't changed, haven't much to say
       A D
       But man, I still think those cats are great…
  • Intro
    G-------------------
    D-------------5-7---
    A---5555-7----------
    E-------------------
    
    
    Verse
    G-----------------------------------------------
    D-----------------------------------------------
    A---55555555-22222222---------------------------
    E------------------------------33333333-55555555
    
    
    Chorus
    G-----------------------------------------------
    D----------------------------------------------
    A----------------------------55555555-22222222--
    E--33333333-55555555----------------------------
    
    
    Ending
    G----------------------------------------------------------
    D-----------------------------------------------------------
    A---55555555-77777777-101010101010101010-1212121212121212-
    E----------------------------------------------------------…
  • A|---------5-5-5-5--9-9-9-9---------7-7-7-7---5-5-5-5-| 
    E|-5-5-5-5------------------7-7-7-7-------------------| 
    
    A|---------5-5-5-5--7-7-7-7---5-5-5-5-| 
    E|-5-5-5-5----------------------------| 
    
    A|---------5-5-5-5----------5-5-5-5|…
  • G
    e|------3---------------------------3---------------------| x4
    B|------3---------------------------3------------1b-0-----|
    G|------0--------0h2-2b-0-----------0--------0h2-2b-0-----|
    D|----0------0h2------------------0-------0h2-------------|
    A|--------------------------------------------------------|
    E|-3---------------------------3--------------------------|…
  • Intro (Guitar 1 W/ slight Distortion)
    e|---------------------------------------------------|
    B|---------------------------------------------------|
    G|---------------------------------------------------|
    D|--5~---5-6-7-8~-----8-7-6-5~----5-6-7-8---8-10-10--|…
  • Intro: (fade in)
    
    Repeat 3 times
    e |---------------------------------|
    B |---------------------------------|
    G |---------------------------------|
    D |-3-3-3-3-3-3-3-3-3-3-3-3-3-3-3-3-|
    A |-3-3-3-3-3-3-3-3-3-3-3-3-3-3-3-3-|
    E…
  • G------------------------------------------------------------------
    D------------------------------------------------------------------
    A------5555----3333----5555----------------------------------------
    E--3333------------------------------------------------------------
    
    REPEAT…
  • Intro       
    
    G|---------|-----------------------------------------------------------------------------------------------------
    
    D|-No bass-|------------------------------------------------------------------------------------------------------------
    
    A|-8-bars--|---------------------------------------------------------------------------------------------------------
    
    E|---------|-----------------------------------------------------------------------------------------------------
    
    
    1st…
  • e|--9--9--9--9--9--10--10--9--9--7--7--0-------------
    b|--7--7--7--7--7---7---7--7--7--7--7--0-------------
    g|--7--7--7--7--7---7---7--7--7--7--7--0-------------
    d|---------------------------------------------------
    a|---------------------------------------------------
    e|---------------------------------------------------
    
    e|--5--5--5--5--5--9--9--7--7--0--0--
    b|--7--7--7--7--7--x--x--x--x--0--0--
    g|--6--6--6--6--6--9--9--7--7--0--0--
    d|-----------------------------------
    a|-----------------------------------
    e|-----------------------------------
    
    
    chorus
    G_____________A7
    Swim…
  • INTRO
    G---------------------
    D---------------------
    A-5>>-----------------
    E---------------------
    
    
    VERSE
    
    G----------------|
    D----------------|
    A-5-5-5-5-5-5-5-5|
    E----------------|
    G--------------------------------|
    D--------------------------------|
    A-5-5-5-5-7-7-7-7-5-5-5-5-9-9-7-7|
    E--------------------------------|
    
    ANOTHER…
  • Intro:
      --3--5--7--5--3---|-6--8--10--8--6
      ------------------|---------------
      --4--5--5--5--4---|-7--8--10--8--6    etc.
      ------------------|---------------
      ------------------|---------------
      ------------------|---------------
    
    
    Main:…
  • E A B
    e|--0-0-2-|
    B|--0-2-4-|
    G|--1-2-4-|
    D|--2-2-4-|
    A|--2-0-2-|
    E|--0-----|
    
    
    Intro 
      E, E, A, B,
    
    
    -VERSE-
           E                         A        B
    He was born in the summer of his 27th year
           E…
  • Verse/Chorus 
    G|---------------------------| 
    D|---------------------------| 
    A|---------------------------| 
    D|-1-111-1-111-4-444-4-66-44-| 
    
    
    I'd be in bed with the radio on.... 
    G|----------------------------| 
    D|---------3-3-3-3------------|…
  • Bass
    G|----------------------------------------------------------|
    D|----------------------------------------------------------|
    A|--------------------------------------5--5----------------|
    E|--2--2-------5--5---0--0---2--2--------------0--0---2--2--|…
  • v1:     G
         I close my eyes when i get to sad
         D                      (Dsus)
         i think thoughts that i know are bad
          C
         close my eyes and count to ten
           D
         hope its over when i open them…
  • C7                                     C#7   
    e|-----------------------------------------------|
    B|-----------------------------------------------|
    G|--3--3-------3--3-------3--3-------3--3--4-----|
    D|--2--2-------2--2-------2--2-------2--2--3-----|
    A|--3--3-------3--3-------3--3-------3--3--4-----|
    E|-----------------------------------------------|…
  • e|--------------------------------------------------------|
    B|--------------------------------------------------------|
    G|--9---9/119---8----8/11----119----9----9/11---116/8--|
    D|--------------------------------------------------------|
    A|--7---7/97---6----6/9------97----7----7/9-----94/6--|
    E|--0---0--------0----0--------0------0-----0------0------|
    
    e|---------------------|
    B|---------------------|
    G|----86----64----4--|
    D|---------------------|
    A|----64----42----2--|
    E|----0------0------0--|
    
    
    Chorus…
  • intro:
    g-5--5/3--3/2--2/1--1/5----------|---------------------------------
    d------------------------5-3-1---|---------------------------------
    a------------------------------3-|-3--3/1--1/0----------3--------3-  hold last…
  • Intro
    e----------------------------------
    b----------------------------------
    g----------------------------------
    d-6-6-64-4/6-6-64-4/6-6-64-4/6-6 Repeat
    a-6-6-64-4/6-6-64-4/6-6-64-4/6-6
    e-4-4-42-2/4-4-42-2/4-4-42-2/4-4…
  • |------------|----------------------------------------------
    |------------|----------------------------------------------
    |--------6-7-|----6-7---------------------------------------
    |--------6-7-|-77-6-7-Repeat-7x-----------------------------
    |--------4-5-|-77-4-5---------------------------------------
    |-15/5-5-----|-55-------------------------------------------
    
    |-----------------------------------------------------------
    |-----------------------------------------------------------
    |-----------------------------------------------------------
    |-44444444-55555555-----------------------------------------
    |-44444444-55555555-----------------------------------------
    |-22222222-33333333-----------------------------------------
    
    |-----------------------------------------------------------
    |-----------------------------------------------------------
    |----6-7----------------------------------------------------
    |-77-6-7-Repeat-5x------------------------------------------
    |-77-4-5----------------------------------------------------
    |-55--------------------------------------------------------
    
    |-----------------------------------------------------------
    |-----------------------------------------------------------
    |-----------------------------------------------------------
    |-44444444-55555555-----------------------------------------
    |-44444444-55555555-----------------------------------------
    |-22222222-33333333-----------------------------------------
    
    |-----------------------------------------------------------
    |-----------------------------------------------------------
    |----6-7----------------------------------------------------
    |-77-6-7-Repeat-1x------------------------------------------
    |-77-4-5----------------------------------------------------
    |-55--------------------------------------------------------
    
    |-----------------------------------------------------------
    |-----------------------------------------------------------
    |-44444444/77777777-----------------------------------------
    |-44444444/77777777-Palm-Muted------------------------------
    |-22222222/55555555-----------------------------------------
    |-----------------------------------------------------------
    
    |-----------------------------------------------------------
    |-----------------------------------------------------------
    |----6-7----------------------------------------------------
    |-77-6-7-Repeat-1x------------------------------------------
    |-77-4-5----------------------------------------------------
    |-55--------------------------------------------------------
    
    |-----------------------------------------------------------
    |-----------------------------------------------------------
    |-44444444/77777777-----------------------------------------
    |-44444444/77777777-Palm-Muted------------------------------
    |-22222222/55555555-----------------------------------------
    |-----------------------------------------------------------
    
    |-----------------------------------------------------------
    |-----------------------------------------------------------
    |----6-7----------------------------------------------------
    |-77-6-7-Repeat-1x------------------------------------------
    |-77-4-5----------------------------------------------------
    |-55--------------------------------------------------------
    
    |-----------------------------------------------------------
    |-----------------------------------------------------------
    |-----------------------------------------------------------
    |-7-Repeat-31x-Palm-Muted-----------------------------------
    |-7---------------------------------------------------------
    |-5---------------------------------------------------------
    
    |-----------------------------------------------------------
    |-----------------------------------------------------------
    |-----------------------------------------------------------
    |-44444444-55555555-----------------------------------------
    |-44444444-33333333-----------------------------------------
    |-22222222-33333333-----------------------------------------
    
    |-----------------------------------------------------------
    |-----------------------------------------------------------
    |----6-7----------------------------------------------------
    |-77-6-7-Repeat-1x------------------------------------------
    |-77-4-5----------------------------------------------------
    |-55--------------------------------------------------------
    
    |-----------------------------------------------------------
    |-----------------------------------------------------------
    |-----------------------------------------------------------
    |-7-Repeat-31x-Palm-Muted-----------------------------------
    |-7---------------------------------------------------------
    |-5---------------------------------------------------------
    
    
    |-----------------------------------------------------------
    |-----------------------------------------------------------
    |-------------------------------------77777777--------------
    |-44444444-55555555-77777777-99999999-77777777-33333333-----
    |-44444444-55555555-77777777-99999999-55555555-33333333-----
    |-22222222-33333333-55555555-77777777----------11111111-----
    
    |-----------------------------------------------------------
    |-----------------------------------------------------------
    |----6-7----------------------------------------------------
    |-77-6-7-Repeat-1x------------------------------------------
    |-77-4-5----------------------------------------------------
    |-55--------------------------------------------------------
    
    |-----------------------------------------------------------
    |-----------------------------------------------------------
    |-----------------------------------------------------------
    |-77777777-66666666-55555555-4444444-3-Palm-Muted-----------
    |-77777777-66666666-55555555-4444444-3----------------------
    |-55555555-44444444-33333333-2222222-1----------------------
    
    |-----------------------------------------------------------
    |-----------------------------------------------------------
    |-----------------------------------------------------------
    |-77777777-66666666-55555555-4444444-33333333--2-Palm-Muted-
    |-77777777-66666666-55555555-4444444-33333333--2------------
    |-55555555-44444444-33333333-2222222-11111111--0------------
    
    |-----------------------------------------------------------
    |-----------------------------------------------------------
    |----6-7----------------------------------------------------
    |-77-6-7-Repeat-15x-----------------------------------------
    |-77-4-5----------------------------------------------------
    |-55--------------------------------------------------------
    
    |-----------------------------------------------------------
    |-----------------------------------------------------------
    |-------------------------------------7-7-7-7-7-7-7-7-------
    |-44444444-55555555-77777777-99999999-7-7-7-7-7-7-7-7-------
    |-44444444-55555555-77777777-99999999-5-5-5-5-5-5-5-5-------
    |-22222222-33333333-55555555-77777777-----------------------
    
    |----------------------------------------------------------
    |----------------------------------------------------------
    |----------------------------------------------------------
    |-3--3--3--3--3--3--7-Let-It-Ring-7/3----------------------
    |-3--3--3--3--3--3--7-------------7/3----------------------
    |-1--1--1--1--1--1--5-------------5/1----------------------…
  • Guitar 1 (electric)
    
    e------4----------6------------9
    b--------4---------6---------9--
    g---5--------7-----------10-----
    d-6--------8----------11-------- 
    a-------------------------------
    e-------------------------------
    
    Guitar…
  • C      G            C               G           F
    I Hate Waking Up It Means I Have To Die Again Tonight
     E          F             E        F
    35 Years Old And Im Still Sleeping Outside
    C            G                C
    Yeah…
  • ~DRUM INTRO~
    
    e-----------------------------
    b-----------------------------
    g-3-3-3---3-3-3-3-3-3---8-8-8-
    d-4-4-4---4-4-4-4-4-4---9-9-9-
    a-4-4-4---4-4-4-4-4-4---9-9-9-
    e-2-2-2---2-2-2-0-2-2---7-7-7-
     Whooo 
     Go 
     Whoo
    
    e---------------------------------
    b---------------------------------
    g---------------------------------
    d-3-3-3-3-3-3-3-3-3-3-3-4-4-3-4-3-
    a-3-3-3-3-3-3-3-3-3-3-3-3-3-3-3-3-
    e---------------------------------…
  • e-------
    b-------
    g-------
    d-10-10-
    a-10-10-
    e-8--8-- 
      Na Na
      Na Na 
      Na Na
      Na Na
    
    (No Music)
    You KNow I Used To Be A 
    
    e----------------------
    b----------------------
    g----------------------
    d-10-10--7-7--5-5--3-3/
    a-10-10--7-7--5-5--3-3/
    e-8--8---5-5--3-3--1-1/…
  • e:---------------------------------
    b:---------------------------------
    g:---------------------------------
    d:---------------------------------
    a:-5--5--5--5--5--5--5--5----
    e:-3--3--3--3--3--3--3--3----
    
    e:-------------------2----------0-----------------2---------------0--
    b:-----------------------2---------0------0b2---------2-------------
    g:--4--4--4--3----------------------3-------------------------------
    d:--5--5--5--4-------------4--------------------------------4-------
    a:--5--5--5--4-------------------------------------------------------
    e:--3--3--3--2-------------------------------------------------------
    repeat…
  • G
    e|-------3---------------3----------| x4
    B|-----3---3---3-------3---3---3----|
    G|---4-------4---4---4-------4---4--|
    D|----------------------------------|
    A|----------------------------------|
    E|-3---------------3----------------|…
Наверх