Аккорды «Everlast»

Everlast
Everlast (настоящее имя - Erik Schrody), родившийся 18 августа 1969 года в городке Valley Stream (штат Нью Йорк), впервые появился на сцене в 1989 году в проекте Ice-T, называвшемся Rhyme Syndicate. Ice-T cтал исполнительным продюсером первого альбома Эрика, под названием "Forever Everlasting". Однако известность пришла к нему позже - созданная в 1992 году в Лос-Анджелесе группа House Of Pain до сих пор остаётся пожалуй самым успешным белым рэп-коллективом. Кроме Эверласта, там присутствовали Leor… Читать полностью... Everlast (настоящее имя - Erik Schrody), родившийся 18 августа 1969 года в городке Valley Stream (штат Нью Йорк), впервые появился на сцене в 1989 году в проекте Ice-T, называвшемся Rhyme Syndicate. Ice-T cтал исполнительным продюсером первого альбома Эрика, под названием "Forever Everlasting". Однако известность пришла к нему позже - созданная в 1992 году в Лос-Анджелесе группа House Of Pain до сих пор остаётся пожалуй самым успешным белым рэп-коллективом. Кроме Эверласта, там присутствовали Leor "DJ Lethal" Dimant (продюсировавший, кстати, первый альбом Sugar Ray, а позднее присоединившийся к Limp Bizkit) и Danny O'Connor. Их дебютный хит "Jump Around" заполнил весь радио- и телеэфир. У меня до сих пор сводит скулы при воспоминании о неподражаемой по своей занудности и въедливости песни. "...And jump around, jump around..." - все пьянки с рэпперами в начале 90-х проходили именно под этот аккомпанемент. Всего банда выпустила три альбома - первый, содержащий их вышеупомянутый хит-сингл, названия не имел - "Нouse Of Pain" (1992), затем вышли "Same As It Ever Was" (1994) и "Truth Crushed To Earth Shall Rise Again" (1996) - после чего ребята решили прикончить собственное детище. (Эверласт покинул группу в день выхода последнего альбома). За время существования группы Everlast успел сняться в триллере 1993 года "Judgment Night", а все вместе они появились в комедии "Who's The Man". В 1993 году Эверласт был арестован в Нью-Йоркском аэропорту имени Дж. Ф. Кеннеди при попытке провоза незарегистрированного оружия. В 1997 году он принял ислам. В 1998 году, в последний день работы над сольным альбомом "Whitey Ford Sings The Blues", Эверласт, взявший теперь ещё один псевдоним - Whitey Ford, переносит сильнейший сердечный приступ, после которого у него в сердце устанавливают искусственный клапан. Альбом представлял из себя смесь рэпа, альтернативы и блюза, а в плане текстов - это своего рода сборник историй, невесёлых историй из жизни. Историй о жадности, неудавшихся судьбах и смерти. Альбом стал трижды "платиновым". Новый альбом "Eat At Whitey's" - альбом личных переживаний. По словам Эрика, он пытался уйти в себя и проанализировать все события, случившиеся в его жизни. "Многие мои песни о смерти, или предсмертном опыте..." - говорит Эверласт - "...На этом альбоме я рассматривал такие аспекты жизни, о которых раньше даже не задумывался. Как и первый альбом, это сборник историй, но историй не о других людях, а обо мне." Эверласт больше не пытается строить из себя отвязанного гангстера - он готов на свой страх и риск, как истинный художник, выставить на показ свою душу. После выхода альбома, Эверласт отправился в турне с человеком, которого очень уважает - с Карлосом Сантаной. "Удивительный человек, который просто любит музыку, и которому наплевать, что его альбом разошёлся в прошлом году тиражом в 12 миллионов экземпляров." Кстати, ранее они уже сотрудничали - Эверласт написал для Сантаны песню "Put Your Lights On", которую они вместе исполнили на альбоме Сантаны "Supernatural". За эту песню они получили "Грэмми" в категории "Лучший рок дуэт или группа (с вокальным исполнением)". Осенью 2000 года после стёбного куплета, спетого Эриком в ремиксе песни группы Dilated Peoples "Ear Drum Pop", где Эверласт в частности спел "I buck a 380 on ones that act shady / You know you ain't the one that repped peckerwood status", Eminem разразился своим очередным опусом под названием "I Remember", где обвинял Эверласта в том, что он с лёгкостью менял стили, на протяжении свой стремительной карьеры, в том что он слишком стар и плохо поёт и играет на гитаре, и даже злорадно поизголялся над здоровьем Эрика Шроди ("I was right there laughing when I heard the news / I just wish the cardiac would have mudered you"). Это стало началом песенной войны между двумя харизматичными музыкантами. Затем, Эверласт записал трэк «Whitey’s Revenge» и опубликовал его на своем официальном вэбсайте. Трэк содержал слова «Better run and check your kid for your DNA», имея в виду дочь Эминема, Хэйли (Hailie). Эминем ответил трэком «Quitter» при участии его группы D12, в котором он угрожал убить Эверласта, если он еще раз упомянет имя Хэйли. Впоследствии, Эверласт в нескольких интервью заявил, что считает, что всё уже было сказано, ему нечего добавить и он более не будет поднимать эту тему. За время своей творческой деятельности Everlast успел поработать со множеством музыкантов, в том числе: Divine Styler, Lordz Of Brooklyn, Run DMC, The X-Ecutioners, Xzibit, Carlos Santana, Swollen Members, Warren Haynes, Cypress Hill (включая участников сольных проектов DJ Muggs, B-Real и Sen Dog), Dilated Peoples, Helmet, Madonna, Sadat X, Bronx Style Bob, Casual, Cee-Lo, Prince Paul, N'Dea Davenport, Fredwreck, Kurupt, Daz Dillinger, Lord Finesse, O. C., Sick Jacken, Ill Bill, Nice & Smooth, Ice-T, Guru, KRS-One, Mack 10, Danny Diablo, Limp Bizkit, KoRn, WC, Prodigy, Mobb Deep, Bad Azz, Son Doobie из Funkdoobiest и многими другими. Дискография: 1990 - Forever Everlasting / Warner Bros. Records 1998 - Whitey Ford Sings the Blues / Tommy Boy Records 1999 - Today [EP] / Tommy Boy Records 2000 - Eat at Whitey's / Tommy Boy Records 2004 - White Trash Beautiful / Island Def Jam 2008 - Love, War and The Ghost of Whitey Ford / Martyr Inc. 2011 - Songs Of The Ungrateful Living Скрыть...
Популярные аккорды Everlast:
алфавиту | просмотрам | случайно
  • Standard Tuning: E, A, D, G, B, E
    
    
    Intro #1
    
    (Play Intro #1 three times the play Intro #2 once & immediately play the first verse!)
    
    	Dm			   Fmaj7	        C
    
    e  -----------3-1-3p1----------------0-0------------1--1------------|
    A…
  • regular tuning, e a d g b E
    
    
    /-slide up,h-hitdown
     e------------------------------------
     a------------------------------------
     d--------------------xxx-5-55--------
     g----0-2-2-2-xxx-5-55xxx-5-55xxx-7-77
     b-0h2--2-2-2-xxx-5-55xxx-3-33xxx-7-77…
  • e-0-0-3-0---0-0-0-0---3-3-3-3-------------------------------------
    B-1-1-1-1---1-1-3-1---0-0-3-0-------------------------------------
    G-2-2-2-2---0-0-0-0---0-0-0-0---0---2-----------------------------
    D-2-2-2-2---2-2-2-2---0-0-0-0-----2-------------------------------
    A-0-0-0-0---3-3-3-3---2-2-2-2-------------------------------------
    E---------------------3-3-3-3-------------------------------------…
  • Intro
    -|--------------------------------------------------------|
    -|-13p12-10-------------8--------8------------------------|
    -|----------------9-7-9------------/9-7--------7h9--------|
    -|-------------------------------------------------10-10--|
    -|--------------------------------------------------------|
    -|--------------------------------------------------------|…
  • INTRO:
     e|-------3----------6----------5----------1---|
     B|---------3----------6----------5----------1-|
     G---------------------------------|
     D|---5----------8----------7----------3-------|
     A|-----5----------8----------7----------3-----|…
  • Tuning: e,B,G,D,A,E from High to Low
    
    
    Intro / Chorus
    
          E      D      C                
    |-----0------2------0------|
    |-----0------3------1------|
    |-----1------2------0------|
    |-----2------0------2------|
    |-----2------X------3------|
    |-----0------X------0------|
    
    
    Mini…
  • Standard Tuning
    E A D G B e
    
    
    CHORDS: D C# B A
    
    
    MAIN RIFF
           D             C#          B           A
    e|-------------------------------------------------------------------------|
    B|-------------------------------------------------------------------------|
    G|-------------------------------------------------------------------------|
    D|-------------------------------------------------------------------------|
    A|---------9------9-----9-----9-----9-----9-----7--------------------------|
    E|-----10-----10-----9-----9-----7-----7-----5-----5…
  • Dropped D Tuning
    
    
    Intro and Verse
    e|-----------------------------------------------------------| 
    B|-----------------------------------------------------------| 
    G|--------2------------5-------------------------------------|…
  • E~~ 022100
    C-- 032010
    
    Intro-
    
    E-0-0-0-0-----0-0-0-0----------------------------------
    B-0-0-0-0-----1-1-1-1----------------------------------
    G-1-1-1-1-----0-0-0-0----------------------------------
    D-2-2-2-2-----2-2-2-2----------------------------------
    A-2-2-2-2-----3-3-3-3----------------------------------
    E-0-0-0-0-----0-0-0-0----------------------------------
    
    
    Lyrics-
    She…
  • verses
    e-0--0---0-0-0-0-0-0----0--0--0-0-0-0-0---------------------------
    B-0--0---2-2-2-2-2-2----2--2--2-2-2-3-2---------------------------
    G-2--2---2-2-2-2-2-2----2--2--2-2-2-2-2---------------------------
    D-2--2---2-2-2-2-2-2----0--0--0-0-0-0-0---------------------------
    A-0--0---0-0-0-0-0-0----------------------------------------------
    E-----------------------------------------------------------------…
  • RAP SAMPLE BIT
    e|-7-----5-----8-7---------------7-----------7-8-------------|
    B|----7-------------7--5--7---------7--5---7---------7--5--7-|
    G|-----------------------------------------------------------|
    D|-----------------------------------------------------------|
    A|-----------------------------------------------------------|
    E|-----------------------------------------------------------|
    
    Rap…
  • Intro
    E |-----------------------|
    B |-----------------------|
    G |-----------------------|
    D |------0----------------|
    A |--0h2------------------|
    E |-----------------------|
    then go right into E
    
    
    Chords (Yesterday, just…
  • MAIN RIFF: (used for almost all of it)
    e|------------------------------------------|
    B|------------------------------------------|
    G|------------------------------------------|
    D|------------5---------------------7^-5----|
    A|---5-7----7---7-5-7----7---5-7----------7-|
    E|-5-----------------------5----------------|
    
    
    BREAKDOWN…
  • [Intro]
       D G A A7 D G A A7 
       D G A A7 D G A A7
    
    
       [Verse]
       D G A
       When you were young and on your own
       D G A
       How did it feel to be alone?
       D G
       I was always thinking of games that I was playing
       D G…
  • Intro: C C/G Am Dm Dm/F G7 G7
           C C/G Am E F G C
    
    Verse 1:
    C                          
    It's been a bit of a while, 
                C/G
    since I've seen you smile
    Am
       It's been too long baby what went wrong…
  • Standard tuning:   e  B G D A E
    
    
    e-----------8----------------8-------------8----------------8-----
    B------9------9----9--9----9---9------9------9----9--9----9---9---
    G---10---10-----10------10---------10---10-----10------10---------
    D-----------------------------------------------------------------
    A-----------------------------------------------------------------
    E-----------------------------------------------------------------
    
    E-----------6----------------6-------------6----------------6-----
    B------9------9----9--9----9---9------9------9----9--9----9---9---
    G---10---10-----10------10---------10---10-----10------10---------
    D-----------------------------------------------------------------
    A-----------------------------------------------------------------
    E-----------------------------------------------------------------…
  • Use capo in the 7 treat 
    
    Intro
    
    Repeat 4 times   I not about the intro 
    
    E ------------------------0---0------------------
    B -------------------------------5-5-h-7-5-------     
    G -----------------------------------------------…
Наверх