Аккорды «Feeder»

Feeder
Feeder - бритрок-группа из Южного Уэльса. Образована в 1995 году двумя старыми друзьями - вокалистом Грантом Николасом и ударником Джоном Ли. Чуть позже к группе примкнул Така Хиросе, японец по происхождению. После выпуска двух демо-альбомов Two Colours (1995) и Swim (1996) ребята приглянулись лейблу Echo Records. Подписав контракт с Echo, Feeder стали записывать дебютный альбом Polythene. Не сказать, что слишком удачный, но благодаря ему музыканты "засветились" на высшем уровне. с альбома выпущены… Читать полностью... Feeder - бритрок-группа из Южного Уэльса. Образована в 1995 году двумя старыми друзьями - вокалистом Грантом Николасом и ударником Джоном Ли. Чуть позже к группе примкнул Така Хиросе, японец по происхождению. После выпуска двух демо-альбомов Two Colours (1995) и Swim (1996) ребята приглянулись лейблу Echo Records. Подписав контракт с Echo, Feeder стали записывать дебютный альбом Polythene. Не сказать, что слишком удачный, но благодаря ему музыканты "засветились" на высшем уровне. с альбома выпущены 5 синглов - Tangerine, Suffocate, Crash, Cement и High. Группа начинает ротироваться на радио и ТВ, участвует в концертах и фестивалях. В 1999 году выходит второй лонг-плей Yesterday Went Too Soon. Feeder немного уклонились в сторону от гранжа первого альбома ближе к поп-панку. Альбом был хорошо воспринят критиками, синглы Insomnia, Yesterday Went Too Soon, Day in Day out и Paperfaces занимали неплохие позиции в чартах, клипы транслировались по ТВ, а сам альбом поднялся на восьмое место британского чарта альбомов. Как оказалось, это был ещё далеко не главный успех Feeder. Следующий релиз британцев появился на свет в 2001 году, и он с ходу взлетел на 5 строчку в британском чарте: мега-успешный сингл Buck Rogers отдал эстафету Turn, 7 Days in the Sun, Piece by piece, а также Just a Day, не вошедшему в альбом. Музыканты почувствовали вкус славы и поднялись на первый эшелон британских команд.Feeder были на пике популярности... А в январе следующего, 2002 года как гром среди ясного неба прогремело известие о самоубийстве барабанщика Джона Ли, что было сюрпризом даже для самых близких ему людей. Фанаты были в отчаянии, группа была на грани распада. Однако Грант и Така не стали ставить крест на судьбе коллектива. Следствие того - в сентябре того же года выходит первый после трагедии сингл Come Back Around, затем Just the Way I'm Feeling, а в начале 2003 года выходит четвёртый релиз группы - Comfort in Sound. Место Джона Ли занял бывший барабанщик Skunk Anansie Марк Ричардсон. В 2003 году вышло ещё 3 сингла - Forget about Tomorrow, Comfort in Sound и Find the Colour. Альбом не имел такого успеха, как Echo Park, но в британском чарте немного уступил своему предшественнику. Через год вышел в свет сборник всех бисайдов группы - Picture of Perfect Youth, а ещё год спустя Feeder записали самый спокойный альбом в своей дискографии, который получил название Pushing the Senses. Feeder отошли от привычной гитарной жести к более тёплому и меланхоличному звучанию, что принесло им дивиденды в виде 2 места в британском чарте. С альбома выпущено 4 сингла - Tumble and Fall, Feeling a Moment (вошедший в саундтрек фильма "Десятидюймовый герой"/"Ten Inch Hero"(2007)), Pushing the Senses и Tender/Shatter. заглавная песня которого (Shatter) стала саундтреком к европейской версии российского боевика "Ночной Дозор".Feeder становятся ещё более популярными. В 2006 году группа выпускает сборник лучших песен - The Singles, в котором помимо хитов добавлены 3 новые песни. Также ограниченным тиражом сборник вышел на DVD. Он включает в себя все видеоклипы группы. Silent Cry вышел в июне 2008 года и смог добиться 8 места в альбомном чарте Великобритании. Feeder снова решили сменить стиль, отдав препочтение более жёсткой по звучанию музыкальной стилистике. В этом же году они приняли участия во многих фестивалях, включая Reading Festival и T in the Park. C альбома выпущено два сингла - We are the People и Tracing Lines / Silent Cry . В 2009 году в связи с воссоединением Skunk Anansie группу покидает Марк Ричардсон. Уже с новым барабанщиком Карлом Брейзилом Feeder записывают ещё один рок-боевик под названием Renegades. Альбом был достаточно холодно встречен публикой и критиками и впервые с 1997 года не попал в британский топ-20 альбомов. Тем не менее, на 2012 год анонсирован выход нового альбома Generation Freakshow с пилотным синглом Borders. Скрыть...
Популярные аккорды Feeder:
алфавиту | просмотрам | случайно
  • 200230 - D/F#
    300230 - Dsus2/G        Asus4 - 002230
    020230 - Bm7
    000230 - Dsus2                      
    
    
    Bm7        Dsus2
    Love in, Love out
    
    Dsus2/G        Bm7     Dsus2   Dsus2/G
    Find a feeling
    
    Bm7…
  • Only uses E string
    
    G|--------------------------------|
    D|--------------------------------|
    A|--------------------------------|           
    E|-0-0-0-0-0-0-0-0-0-4-4-4-5-5-5-5|
    
    Verse
    
    G|--------------------------------|
    D|--------------------------------|
    A|--------------------------------|…
  • Standard tuning.
    
    INTRO: (Dist.)
    |---------------------------------------|
    |---------------------------------------|
    |----------7-7-7------------------------|
    |---5-5-5--7-7-7----7-7-7--10-10-10--9-8|
    |---5-5-5--5-5-5----7-7-7--10-10-10--9-8|
    |---3-3-3-----------5-5-5--8--8--8---7-6|…
  • Intro Part A Guitar 1
    e|----------------|----------------|----------------|----------------|
    B|----------------|----------------|----------------|----------------|
    G|----11--11--9---|9---11--11--9---|----11--11--9---|9--/13--11--9---|
    D|----------------|----------------|9---------------|----------------|
    A|----------------|----------------|----------------|----------------|
    E|----------------|----------------|----------------|----------------|
    
    e|----------------|----------------|----------------|----------------|
    B|----------------|----------------|----------------|----------------|
    G|----11--11--9---|9---11--11--9---|----11--11--9---|9--/13--11--9---|
    D|11--------------|----------------|9---------------|----------------|
    A|----------------|----------------|----------------|----------------|
    E|----------------|----------------|----------------|----------------|
    
    e|----------------|----------------|----------------|----------------|
    B|----------------|----------------|----------------|----------------|
    G|----11--11--9---|9---11--11--9---|----11--11--9---|9--/13--11--9---|
    D|11--------------|----------------|9---------------|----------------|11
    A|----------------|----------------|----------------|----------------|
    E|----------------|----------------|----------------|----------------|
    
    Intro…
  • [M-mute with thumb (a la hendrix)]VERSE
    
    Main guitar
     Gsus          C(add 9)       A7(Sus4)       C(add 9)
    E---------3---|---------3----|---------3----|---------3----|
    B---------3---|---------3----|---------3----|---------3----|
    G---0--0--0---|---0--0--0----|---2--2--2----|---0--0--0----|
    D---0--0--0---|---2--2--2----|---2--2--2----|---2--2--2----|
    A---2--2--2---|---3--3--3----|---0--0--0----|---3--3--3----|
    E---3--3--3---|---M--M--M----|---M--M--M----|---M--M--M----|
    
    Guitar…
  • INFO
    
    R= 1 Beat of rest
    
    VERSE 1
    
    GUITAR
    E|--2-2-2-2-2-2---3-3-3-3-3-3-----|
    B|--3-3-3-3-3-3---3-3-3-3-3-3-----|
    G|--2-2-2-2-2-2---2-2-2-2-2-2-----|
    D|--------------------------------|
    A|--------------------------------|
    E|--------------------------------|
    
    BASS…
  • ***CAPO 3RD FRET***
    
    INTRO
    
    C (X32010)    EM (022000) C (X32010)  EM7 (022030)
    
    VERSE
    
    C (X32010)                 EM (022000)                          DM (XX0231)
        STARING AT PAPER FACES, EXPRESSIONS LIKE EMPTY PAGES
    
    A5…
  • Intro
    
    e|------------------------|
    B|------------------------|
    G|----------------------3-|
    D|-5-5-x-3-3--5-5-x-3-3-3-|  x2
    A|-5-5-x-3-3--5-5-x-3-3-1-|
    E|-3-3-x-1-1--3-3 x-1-1---|
    
    Verse
    
    OK a bit confusing but the notes…
  • Capo 3
    
    Expect the lyrics very soon...
    
       Am      C       G       Dm
    e|-----------------------------1p0----
    B|-----1---------------0----------3p1-
    G|-------2-----0---------0---2--------
    D|---2-------2---2---0-----0----------
    A|-0-------3--------------------------
    E|-----------------3------------------
    
    Verse:…
  • Intro:
    
    A-E-B
    
    First verse:
    
    A            E               B
    Feeling the moment slip away
    A         E                     B             
    Losing direction you're losing faith,
                           A
    You're wishing…
  • intro 
    G --------------------------------------------------------------------
    D --------------------------------------------------------------------
    A ---3-3-3-3-------5-5-5-5-5-5-5-5--3-3-3-3-----------5-5-5-5-5-5-5-5-
    E…
  • Verse: Play these chords- listen to CD for rhythm
    
    E|--0--0--0--|
    B|--2--0--0--|
    G|--2--2--2--|
    D|--2--2--3--|
    A|--0--0--0--|
    E|-----------|
    
    Link to chorus:
    
    Guitar 1: Strum these chords:
    
    E|--0--0--0--0--|
    B|--0--0--0--0--|
    G|--2--2--2--2--|
    D|--2--3--4--3--|
    A|--0--0--0--0--|
    E|--------------|
    
    Guitar…
  • INTRO (i think that the guitarist plays a normal d but a barre chord f#)
    D D D D| D D D D| F# F# F# F#| F# F# F# F#| D D D D| D D D D| F# F# F# F#| F# F# F# F#
    
    VERSE: (STRUM THE CHORD ONCE AND LET IT RING)
    D…
  • Intro
    G-----------------------------
    D--------0-0000--------0-0000-
    A-0-0000--------0-0000--------
    E-----------------------------
    
    verse 1
    G-----------------------------
    D--------0-0000--------0-0000-  x2
    A-0-0000--------0-0000--------
    E-----------------------------
    
    G-----------------------------
    D-----------------------------
    A-0---04750-5750---04750-5540-
    E-----------------------------
    
    G-----------------------------
    D-----------------------------
    A-04750-5750---04750-5540-----
    E-----------------------------
    
    Pre-Chorus
    G--------------------
    D----------00000000--
    A-00000000-----------
    E--------------------
    
    Chorus
    G---------------------------------
    D-----------------0-0-0-0-0-0-0-0-…
  • Notes  : Dropped-D Tuning (This symbol ~ means bend string up and down)
    
    Main Riff:
    
    Guitar 1:                       Guitar 2:
    
    e|----------------------------| 
    |-12-12-12-12-12-12-12-12-12-12-12-12-12-12-12-12-12-|
    B|----------------------------|…
  • 6-String guitar in Standart Tuning.
    
    INTRO - Listen to the Song for the strumming Pattern
    
    E---------------
    B---------------
    G--------------- X2
    D--------------- 
    A-5----2----10--
    E-3----O----8---
    
    VERSE - Guitar 1 is the…
  • Standard tuning
    
    New song of Echo Park one of my favourites. Sounds ok to me check it out.
    
    
    Intro/verse
    E--------------------------------------------------------|
    b--------------------------------------------------------|
    g--------------------------------------------------------|
    d--0-4-0-4-0-4-0-4-5-5-4---------------------------------|
    a--0-4-0-4-0-4-0-4-5-5-4---------------------------------|
    e--0-2-0-2-0-2-0-2-3-3-2---------------------------------|
    
    Mother…
  • intro-clean/mild distortion
       E           Eb 
    e--------------------------
    B--------------------------
    G--------13-13-------12-12-
    D--------14-14-------13-13- (x2)
    A--------14-14-------13-13-
    E--12-12-12-12-11-11-11-11-
    
    Verse…
  • Intro & Chorus Riff
    
    E|---------------------------------------------------------|
    B|---------------------------------------------------------|
    G|-------15---15------15---15---------15---15------15----15|
    D|-13-13--------13-13---13------12-12--------12-12----12---|
    A|---------------------------------------------------------|
    D|---------------------------------------------------------|
    
    Guitar…
  • Notes: Standard tuning: EADGBE
    
    Intro -Listen to CD for rhythm-
    
    riff1 x2
    
    E|--------------------------------------------------------|
    B|--------------------------------------------------------|
    G|--------------------------------------------------------|
    D|--------------6-6-6-6----9-9-9-9------------------------|
    A|--6666666-----6-6-6-6----9-9-9-9------------------------|
    E|--------------4-4-4-4----7-7-7-7------------------------|
    
    riff2…
  • Capo 3
    
    G        Am           C  (X4)
    Crossing bridges over water
    A new reflection creeping in
    Got your head so full of traffic
    The love pollution's setting in
    
    Em      C              Am            C
    Cos I'm feeling that…
  • e|------------------|
    B|-3--3------3----3-|
    G|-2--2------2----2-|
    D|-0--2------x----0-|
    A|----0------2----x-|
    E|----------------3-|
       D5 Asus4  Bm7  G
    
    gtr1
    
    Intro: D5 (as a power chord) until verse begins
    
    D5…
  • Bass line: (For reference)
    G|----------------------------|
    D|----------------------------|
    A|--------3-3--0-0-0-1-0------|
    E|--1-1-1----------------1-0--|
    
    Gtr 1:
    E|--------------|
    B|--------------|
    G|--9-let ring--|
    D|--------------|
    A|--------------|
    E|--------------|
    
    Gtr…
  • Standard Tuning
    
    Capo 5th Fret (both guitars)
    
    CHords & notes relative to capo
    
    During the intro & verses, gtr 2 plays this:
    
    e|-----3p2-----------------------------------------------|
    b|---------3------1-------1h3p1-------------3------------|
    g|----------2--------2----------------0--------0---0--0--|
    d|---0----------------------------------0--------0----0--|
    a|------------0---------------------------2-----------2--|
    e|---------------------------------3---------------------|
    
    Intro:…
  • Intro
    E|----------------------------------|
    B|----------------------------------|
    G|----------------------------------|
    D|--3-3-3-3-3-/-5-5-5-5-5-----------|
    A|--3-3-3-3-3-/-5-5-5-5-3-----------|
    E|--1-1-1-1-1-/-3-3-3-3-3-----------|
    
    Verse
    E|--8-8-8-8-8--7-7-7-7-7------------|
    B|--8-8-8-8-8--8-8-8-8-8------------|
    G|----------------------------------|
    D|----------------------------------|
    A|----------------------------------|
    E|----------------------------------|
    
    Pre-Chorus
    E|-------------------------------------------------|
    B|-------------------------------------------------|
    G|------------------------5-5-5-5-5-5-5-5-5-5------|
    D|--7-7-7-7-7--3-3-3-3-3--5-5-5-5-5-5-5-5-5-5------|
    A|--7-7-7-7-7--3-3-3-3-3--3-3-3-3-3-3-3-3-3-3------|
    E|--5-5-5-5-5--1-1-1-1-1---------------------------|
    
    Chorus
    B|----------------------------------|
    G|----------------------------------|
    D|--3-3-3-3-3-/-5-5-5-5-5-----------|
    A|--3-3-3-3-3-/-5-5-5-5-3-----------|
    E|--1-1-1-1-1-/-3-3-3-3-3-----------|
    
    Bridge
    E|-------------5-5-5-5-5--|
    B|-------------5-5-5-5-5--|
    G|-------------6-6-6-6-6--|
    D|--7-7-7-7-7--7-7-7-7-7--|
    A|--5-5-5-5-5-------------|
    E|------------------------|…
  • E--------------------------------------
    B--------------------------------------
    G------0-----0---0------0-----0---0----
    D----4-----4----------5-----5----------
    A--2-----2-----2----3-----3-----3------
    E--------------------------------------
    
    This…
  • Capo 3d fret
    
    Chords:
        G   C   Em7  Asus4
    e|--3---3----3-----3--|
    B|--3---3----3-----3--|
    G|--0---0----0-----2--|
    D|--0---2----2-----2--|
    A|--2---3----2-----0--|
    E|--3-----------------|
    
    Intro: G  C  Em7  C…
  • Tuning: Drop-D (D-A-D-G-B-E)
    
    Intro/Verse x12
    
    E-------------------------
    B-------------------------
    G-------------------------
    D-13-3-3---3--36-6-6----
    A-13-3-3---3--36-6-6----
    D-13-3-3---3--36-6-6----
    
    
    Bridge x2
    
    E------------------------------------------------
    B---------------------------------------7b~-8b~--
    G------------------------------------------------…
  • Chords:
    
         A9  C7  Em  D   G
    E|---0---0---0---2---3---|
    B|---0---0---0---3---3---|
    G|---2---0---0---2---0---|
    D|---2---2---2---0---0---|
    A|---0---3---2-------2---|
    E|-----------0-------3---|
    
    Intro: A9  C7
    
    Verse:
    
    A9…
  • Cadd9
    Calling, distorting
    Em7            G
    Reach the ends for you
    Em7           G
    Burn a hole right through
    
    Cadd9
    Talking, we keep talking
    Em7           G
    Filling empty space
    Em7         G
    In this lonely frame…
  • Intro: Main Riff x 2 (G Em B)
    
    Verse One:
    
    G Em	    B
    Crack and break, 
    
    G Em	    B
    Life's big mistake.
    
    C	    D
    I'm feeling it too.
    
    
    G Em	        B
    There's no way home
    
    G		    B
    The summer's gone, the summer's gone away
    
    G…
  • Standard Tuning with Capo on fret 4 (for rhythm parts)
    Lead just standard tuning (no capo)
    
    Rhythm Verse
    |-0----0-
    |-2----0-
    |-1----1-
    |-2----2-
    |--------
    |--------
    
    lead
    |-------------------------------------11-11-11-11-11-11-11-------------
    |-11-11-11-11-11-13-11-10-10-10-10-10----------------------11-11-11-11-
    |----------------------------------------------------------------------
    |----------------------------------------------------------------------
    |----------------------------------------------------------------------
    |----------------------------------------------------------------------
    
    |------8-
    |----9---
    |-10-----
    |--------
    |--------
    |--------…
  • The whole song is just the progression of these chords:
    
        F9   C   G
    e|--X----0---3---|
    B|--1----1---3---|
    G|--0----0---0---|
    D|--3----2---0---|
    A|--3----3---2---|
    E|-------X---3---|
    
    Ocean blue 
    
    Deep and…
  • Notes: Drop D tuning
    
    
    Intro
    
    E|---------------------------|
    B|---------------------------|
    G|-12-12-11---9-11-12-11--9--|
    D|--0--0--0---0--0--0--0--0--|
    A|-10-10--9---7--9-10--9--7--|
    D|--0--0--0---0--0--0--0--0--|
    
    Riff
    
    E|--------------------------------------------|
    B|--------------------------------------------|
    G|--------------------------------------------|
    D|--0-0-0-3-0-0--0-0-0-6---0-0-0-3-0-0-6-5-3--|
    A|--0-0-0-3-0-0--0-0-0-6---0-0-0-3-0-0-6-5-3--|
    D|--0-0-0-3-0-0--0-0-0-6---0-0-0-3-0-0-6-5-3--|
    
    Verse:
    
    e|-------------------------------------------------|
    B|-------------------------------------------------|
    G|-------------------------------------------------|
    D|-------------------------------------------------|
    A|-------------------------------------------------|
    D|--0-0-0--0--0-0-0--0--3---0-0-0--0--0-0-0--0--6--|
    
    e|-------------------------------------------------|
    B|-------------------------------------------------|
    G|-------------------------------------------------|
    D|-------------------------------------------------|
    A|-------------------------------------------------|
    D|--0-0-0--0--0-0-0--0--8---0-0-0--0--0-0-0--0-10--|
    
    Chorus:
    
    Pick…
  • Standard tuning
    
    intro:gtr1
    e|-----------------------------------------------| x2
    b|-----------------------------------------------| 
    g|-55--55--55--55--555/88--88--88--88--/10-10-10-| 
    d|-55--55--55--55--555/88--88--88--88--/10-10-10-|…
  • Intro/Verse:
    (Palm muted)
    E|--------------------------------|
    B|--------------------------------|
    G|--------------------------------|
    D|0---0---0---0---0-8-8-8-8-7-7-7-|
    A|0---0---0---0---0-8-8-8-8-7-7-7-|
    D|0-0-0-0-0-0-0-0-0-8-8-8-8-7-7-7-|
    
    Repeat…
  • Drop-D Tuning
    
    INTRO/VERSE:
    e|------------------------------------------------------------------|
    B|------------------------------------------------------------------|
    G|------7-------7-------7-------7-------7-------7-------7-------7---|
    D|------7-7-----7-7-----7-7-----7-7-----7-7-----7-7-----7-7-----7-7-|
    A|----5-------5-------5-------5-------5-------5-------5-------5-----|
    D|--0-------5-------0-------5-------0-------5-------0-------5-------|
    
    It's…
  • Notes: Drop D Tuning
    
    Intro: Footsteps "Where's this bit, na we're in the wrong bit"
    
    Distant, muffled guitar
    
    E|--------------------------|
    B|--------------------------|
    G|--------------------------|
    D|--------------------------|
    A|--5-5--5-5-5--5-5-5--etc--|
    D|--0-0--0-0-0--0-0-0--etc--|
    
    Play…
  • Notes  : Dropped-D Tuning
    
    Intro to intro:
    
    e|------------------------------------------------------------------|
    B|------------------------------------------------------------------|
    G|------------------------------------------------------------------|
    D|--0-3--0-3--0-3--0-3----------(drums)-----------------------------|
    A|--0-3--0-3--0-3--0-3----------------------------------------------|
    D|--0-3--0-3--0-3--0-3----------------------------------------------|
    
    Intro/Verse:
    
    e|------------------------------------------------------------------|
    B|------------------------------------------------------------------|
    G|------------------------------------------------------------------|
    D|--1h3-3-3-3-1-1-1-1-0-0-0-0-6-6-6-1h3-3-3-3-1-1-1-1-0-0-0-0-6-6-6-|
    A|--1h3-3-3-3-1-1-1-1-0-0-0-0-6-6-6-1h3-3-3-3-1-1-1-1-0-0-0-0-6-6-6-|
    D|--1h3-3-3-3-1-1-1-1-0-0-0-0-6-6-6-1h3-3-3-3-1-1-1-1-0-0-0-0-6-6-6-|
    
    Link…
  • INTRO/VERSE RIFF:
    
    E|-------------------------------------------------|
    B|-------------------------------------------------|
    G|-------------------------------------------------|
    D|-------------------------------------------------|
    A|-------------------------------------------------|
    D|--0--0-0-0-0-10--0-0-0-0-9--0-0-0-0--8--8-8-8-7--|
    
    LINK…
  • Tuning: Standard e B G D A E
    Capo: 3rd 
    
    Tabbed notes are not relative to capo!
    
    e|-------------13------------------------------13---------------------15-15-15-13------|
    B|-15-15-15-13-----15-15-15-13-----15-15-15-13----15-15-15-13---------------------15---|
    G|-----------------------------15------------------------------15-12-------------------|
    D|-------------------------------------------------------------------------------------|
    A|-------------------------------------------------------------------------------------|
    E|-------------------------------------------------------------------------------------|
    
    e|-------------15----15-13-------------------------15-15-15-15-13----------------------|
    B|-------13-15----------------13-13-15-13-------------------------15-------------------|
    G|-12-15----------12-------12----------------15-12-------------------------------------|
    D|-------------------------------------------------------------------------------------|
    A|-------------------------------------------------------------------------------------|
    E|-------------------------------------------------------------------------------------|
    
    
    Em	C7M…
  • INTRO/VERSE RIFF:
    
    E|-----------------------------------------------------------|
    B|-----------------------------------------------------------|
    G|-----------------------------------------------------------|
    D|-11--11--11-11-11---12-11--7--11--11--11-11-11---12-11-14--|
    A|--0---0---0--0--0----0--0--0---0---0---0--0--0----0--0--0--|
    E|-----------------------------------------------------------|
    
    LINK…
  • E       A
    I've got a pain in my sick brain
    B                A
    Two red eyes and broken veins
    E                 A
    I've got a hand inside my head
      B                A
    A chainsaw cutting through my bed
    E…
  • Drop-D Tuning
    
    
    INTRO VERSE: Listen to CD for rhythm
        D5  B5  C5   G5
    E|------------------|
    B|------------------|
    G|------------------|
    D|--0---9---10---5--|
    A|--0---9---10---5--|
    D|--0---9---10---5--|
    
    CHOURS:…
  • intro:
      G: D: A:
    e|3--2--0-|
    B|0--3--2-|
    G|0--2--2-|
    D|0--0--2-|
    A|2--0--0-|
    E|3--0--0-|
    
    verse:
      B:       Bb:A:D:       don't know^^
    e|2-2-2-2-2-1-0-5---5-5-5-7-7-7-8---|
    B|4-4-4-4-4-3-2-7---7-7-7-9-9-9-10--|
    G|4-4-4-4-4-3-2-7---7-7-7-9-9-9-10--|
    D|4-4-4-4-4-3-2-7---7-7-7-9-9-9-10--|
    A|2-2-2-2-2-1-0-5---5-5-5-7-7-7-9---|
    E|2-2-2-2-2-1-0-5---5-5-5-7-7-7-9---|
    
    pre-chorus:
    e|2-2-2-2-2-2-2-5-5-5-5-7-7-7-7-|
    B|4-4-4-4-4-4-4-7-7-7-7-9-9-9-9-|
    G|4-4-4-4-4-4-4-7-7-7-7-9-9-9-9-|
    D|4-4-4-4-4-4-4-7-7-7-7-9-9-9-9-|
    A|2-2-2-2-2-2-2-5-5-5-5-7-7-7-7-|
    E|2-2-2-2-2-2-2-5-5-5-5-7-7-7-7-|
    chorus:
    G,…
  • played though at the start of every D chord:
    
    E:---5--
    B:-3----
    G:------
    D:------
    A:------
    E:------
    
    Verse and Chorus:
    
       D  Am C  G
    
    E:-2--0--0--3--
    B:-3--1--1--3--
    G:-2--2--0--0--
    D:-0--2--2--0--
    A:-0--0--3--2--
    E:----------3--
    
    Also…
  • Chords:
    G-320033
    D-000232
    Cadd9-032033
    
    Intro
    DGDG
    Verse
    D     G              D
       I wanna watch you grow
       G              D
    I love to see you glow
      G               D
    I wanna watch the sunshine
        G…
  • Capo 3
    
    Tuning: Standard E A D G B E
    
    Intro: G D Am C
    
    Verse 1:
    
    G                                                
    
    It's hard for me to comprehend, 
    
       D            Am
    
    Holding on with broken hands…
  • Intro:
    C#   Bbm   Fm 
    C#   Bbm   Fm
    
    Verse:
    C#   Bbm   Fm
        28, looking good
                        Fm
        She's a fire, she's a fire, she's a..
     C#                    Bbm                   Fm 
        It's been a way…
  • Standard Tuning
    
    Intro:
    
    gtr2:
    e|-----------------------|x3
    B|-----17-----17------17-|
    G|---17-----17------17---|
    D|-17-----17------17-----|
    A|---------------x-------|
    E|-----------------------|
    
    then
    
    gtr1:
    e|-------------------------------------------------------------------------|
    B|-1---------------------------------1-------------------------------------|
    G|-0-0-0-0-0-0-0-0-0-0-0-0-0-0-0-0-0-0-0-0-0-0-0-0-0-0-0-0-0-0-0-0-0-0-0-0-|
    D|-2-2-2-2-3-3-3-3-3-2-2-2-2-5-5-5-5-2-2-2-2-3-3-3-3-3-3-3-2-2-2-2-0-0-0-0-|
    A|-3-3-3-3-3-3-3-3-3-3-3-3-3-5-5-5-5-3-3-3-3-3-3-3-3-3-3-3-3-3-3-3-3-3-3-3-|
    E|-------------------------------------------------------------------------|
    gtr2:
    e|-----------------------------------------15-|
    B|-17-15-17-15-17-15-----17-15-17-15-17-15----|
    G|-------------------17-----------------------|
    D|--------------------------------------------|
    A|--------------------------------------------|
    E|--------------------------------------------|
    
    
    Verse:
    
    gtr1:
    e|-------------------------------------------------------------------------|
    B|-1---------------------------------1-------------------------------------|
    G|-0-0-0-0-0-0-0-0-0-0-0-0-0-0-0-0-0-0-0-0-0-0-0-0-0-0-0-0-0-0-0-0-0-0-0-0-|
    D|-2-2-2-2-3-3-3-3-3-2-2-2-2-5-5-5-5-2-2-2-2-3-3-3-3-3-3-3-2-2-2-2-0-0-0-0-|
    A|-3-3-3-3-3-3-3-3-3-3-3-3-3-5-5-5-5-3-3-3-3-3-3-3-3-3-3-3-3-3-3-3-3-3-3-3-|
    E|-------------------------------------------------------------------------|…
  • Intro and verses
    
       E-----------------------------------|--------------------]
       B------3--3----------3-----1---1----|--------------------]
       G----0--0-----0----0-----0---0---0--|----0-3-3----0-3-3--]
       D-----------------------------------|--1--------1--------]…
  • Both Guitars: standard tuning
    
    GTR 1
    
    intro & verse 1:repeat trough all the verse
    e|---------------------------------------------|
    B|-----7---7------7---7------------------------|
    G|----7----------7-----------6---6------6---6--|
    D|-------------------------7----------7--------|
    A|---0----0----0----0----0-----0----0-----0----|
    E|---------------------------------------------|
    
    
    Pre-Chorus…
  • intro (clean)
    E|------------------------------------------------------------------------|
    B|------------------------------------------------------------------------|
    G|14-14-14-14-14-14-14-14-14-14-14-14-14-14-14-14-14-14-14-14-14-14-14-14-|
    D|------------------------14-14-14-14-14-14-14-14-14-14-14-14-14-14-14-14-|
    A|------------------------------------------------12-12-12-12-12-12-12-12-|
    E|------------------------------------------------------------------------|
    
    E|------------------------|
    B|------------------------|
    G|14-14-14-14-14-14-14-14-|
    D|14-14-14-14-14-14-14-14-|
    A|12-12-12-12-12-12-12-12-|
    E|------------------------|
    
    verse…
  • Tuning:Standard
    
    Theres two guitars by the way
    
    Intro/verse
    
    Guitar 1
    e|-------------------------------------------------------------------------|
    B|-------------------------------------------------------------------------|
    G|-------------------------------------------------------------------------|
    D|--5-5-5-5-5-5-5-5-5-5-5-5-5-5--------------------------------------------|
    A|--3-3-0-5-5-5-5-5-5-5-5-5-5-5--------------------------------------------|
    E|--------3-3-3-3-3-3-3-3-3-3-3--------------------------------------------|
    
    
    e|-------------------------------------------------------------------------|
    B|-------------------------------------------------------------------------|
    G|-------------------------------------------------------------------------|
    D|--5-5-5-5-5-5-5-5-5-5-5-5-5-5--------------------------------------------|
    A|--3-3-0-5-5-5-5-5-5-5-5-5-5-5--------------------------------------------|
    E|--------3-3-3-3-3-3-3-3-3-3-3--------------------------------------------|
    
    e|-------------------------------------------------------------------------|
    B|-------------------------------------------------------------------------|
    G|-------------------------------------------------------------------------|
    D|--5-5-5-5-5-5-5-5-5-5-5-5-5-5--------------------------------------------|
    A|--3-3-0-7-7-7-7-7-7-7-7-7-7-7--------------------------------------------|
    E|-------------------------------------------------------------------------|
    
    
    e|-------------------------------------------------------------------------|
    B|-------------------------------------------------------------------------|
    G|-------------------------------------------------------------------------|
    D|--5-5-5-5-5-5-5-5-5-5-5-5-5-5--------------------------------------------|
    A|--3-3-0-5-5-5-5-5-5-5-5-5-5-5--------------------------------------------|
    E|--------3-3-3-3-3-3-3-3-3-3-3--------------------------------------------|
    
    repeat…
  • Capo 1
    
    
    C            Am
    All this for nothing, yeah yeah yeah
    C           Am                  Dm
    Praying and hoping, fooling yourself
                      F               Dm
    You know that you can give love a reason…
  • Tuning - Drop D (DADGBe)
    
    Intro
    Repeat x4
    e|----------------------------------|
    B|----------------------------------|
    G|----------------3-----3-----3-----|
    D|--5-5-5-5-5-5-5-5-5-5-5-5-5-5-5-5-|
    A|--3-3-3-3-3-3-3-3-3-3-3-3-3-3-3-3-|
    D|----------------------------------|
    
    Verse
    
    e|--------------------------------|
    B|--------------------------------|
    G|--7---7---5-----7---7-----5---5-|
    D|--7---7---5-----7---7-----5---5-|
    A|--5---5---3-----5---5-----3---3-|
    D|--------------------------------|
    
    Chorus
    
    (let…
  • INTRO
    
    E---------------------------------------------------------------------
    B---------------------------------------------------------------------
    G--------------------------8-8-8-8-----------------------------8-8-8-8
    D-8-8-8-8---3-3--6-6-6-6---8-8-8-8-X-X--8-8-8-8--3-3--6-6-6-6--8-8-8-8
    A-8-8-8-8---3-3--6-6-6-6---6-6-6-6-X-X--8-8-8-8--3-3--6-6-6-6--6-6-6-6
    E-6-6-6-6---1-1--4-4-4-4-----------X-X--6-6-6-6--1-1--4-4-4-4---------
    
    
    
    VERSE:…
  • Intro: E5
    
    Verse: G5, B5, C5, E5 x3
           G5, B5, C5
    
    Pre Chorus: A5, C5
    
    Chorus: E5, C5, B5, E5
            C5, B5
            E5, C5, B5, E5
            C5, B5
    
    Post Chorus: G5, B5, C5, B5
                 E5
    
    Verse: G5,…
  • Intro: Muted clicks
    
    Verse:
    
    e|------------------------|repeat as needed
    B|------------------------|
    G|--9-------9--9----------|
    D|--9--8-8--9--9--8-8--8--|
    A|--7--8-8--7--7--8-8--8--|
    E|-----6-6--------6-6--6--|
    
    Bridge:
    
    e|------------------------|
    B|------------------------|
    G|--9-------9--9----------|
    D|--9--7-7--9--9--7-7--7--|
    A|--7--7-7--7--7--7-7--7--|
    E|--0--5-5--0--0--5-5--5--|
    
    Chorus:
    
    e|------------------------------------------------------------------|
    B|------------------------------------------------------------------|
    G|------------------------------------------------------------------|
    D|--9-9-9-9-9-9-9-9111111-7-7-7-7-7-9-9-9-9-9-9-9-9111111-7-7-7-7-7-|
    A|--9-9-9-9-9-9-9-9111111-7-7-7-7-7-9-9-9-9-9-9-9-9111111-7-7-7-7-7-|
    E|--7-7-7-7-7-7-7-7-9-9-9-5-5-5-5-5-7-7-7-7-7-7-7-7-9-9-9-5-5-5-5-5-|
    
    e|------------------------------------------------------------------|
    B|------------------------------------------------------------------|
    G|------------------------------------------------------------------|
    D|--9-9-9-9-9-9-9-9111111-7-7-7-7-7-9-9-9-9-9-9-9-9111111-7-7-7-7-7-|
    A|--9-9-9-9-9-9-9-9111111-7-7-7-7-7-9-9-9-9-9-9-9-9111111-7-7-7-7-7-|
    E|--7-7-7-7-7-7-7-7-9-9-9-5-5-5-5-5-7-7-7-7-7-7-7-7-9-9-9-5-5-5-5-5-|
    
    e|------------------------------------------------------------------|
    B|------------------------------------------------------------------|
    G|------------------------------------------------------------------|
    D|--9-9-9-9-9-9-9-9111111-7-7-7-7-7-9-9-9-9-9-9-9-9111111-7-7-7-7-7-|
    A|--9-9-9-9-9-9-9-9111111-7-7-7-7-7-9-9-9-9-9-9-9-9111111-7-7-7-7-7-|
    E|--7-7-7-7-7-7-7-7-9-9-9-5-5-5-5-5-7-7-7-7-7-7-7-7-9-9-9-5-5-5-5-5-|
    
    e|--------------------------------------------------------------|---|
    B|--------------------------------------------------------------|---|
    G|--------------------------------------------------------------|---|
    D|--9-9-9-9-9-9-9-9111111-7-7-7-7-7-9-9-9-9-9-9-9-9-7-----------|-5-|
    A|--9-9-9-9-9-9-9-9111111-7-7-7-7-7-9-9-9-9-9-9-9-9-7-----------|-5-|
    E|--7-7-7-7-7-7-7-7-9-9-9-5-5-5-5-5-7-7-7-7-7-7-7-7-5-----------|-3-|…
  • Standard Tuning
    
    For the main riff & verses, strum these chords:
    
    E|-----------------|
    B|-----------------|
    G|----------x---x--|
    D|--2---x---x---x--|
    A|--2---5---4---5--|
    E|--0---3---5---6--|
    
    Chorus:
    
        E…
  • Verse:
    
    Gtr1:
    E|-----------------------------------------------------|
    B|--8--8--8--8--8--8--8-7-5----8--8--8-7-8-7-8s-10-10--|
    G|--------------------------7--------------------------|
    D|-----------------------------------------------------|
    A|-----------------------------------------------------|
    E|-----------------------------------------------------|
    
    Gtr2:…
  • Standard Tuning
    
    P=Palm muted
    
    Verse
    E|--------------------------------------|
    B|--------------------------------------|
    G|--------------------------------------|
    D|--44-4-44-4-44-4-44-4-44-4-44-4-44-5--|
    A|--44-4-44-4-44-4-44-4-44-4-44-4-44-5--|
    E|--22-0-22-0-22-0-22-0-22-0-22-0-22-3--|
    repeat…
  • Intro: C Am F x2
    
    Verse 1
    
       C  
      Heache
                        Am         F
      can't watch you brake and shatter
       C
      saved
                      Am       F 
      we've lives to make us better
    
    Pre-chorus 1…
  • Capo on 3rd Fret
    
    notes r relative to capo
    
    Chords:
       Em7  Cadd2  Asus4  G   D  Dsus4/A   Dsus2/A
    e|--3----3-------3----3---2-----3---------0--|
    B|--3----3-------3----3---3-----3---------3--|
    G|--0----0-------2----0---2-----2---------2--|
    D|--2----2-------2----0---0-----0---------0--|
    A|--2----2-------0----2---0-----0---------0--|
    E|--x----x-------x----3---x-----x---------x--|
    
    when…
  • Standard Tuning
    
    capo 4th fret
    
    notes & chords r relative to capo
    
    gtr 1:intro & verse
       Em                              C
    e|-----------------------------------------------------------------|
    B|-------1-----------------1-------------1-----------------1-------|
    G|---0-0-0-----------0-0-0-0-------0-0-0-0-----------0-0-0-0-------|
    D|-2-2-2-2-2-2-2-2-2-2-2-2-2-2-2-2-2-2-2-2-2-2-2-2-2-2-2-2-2-2-2-2-|
    A|-2-2-2-2-2-2-2-2-2-2-2-2-2-2-2-2-3-3-3-3-3-3-3-3-3-3-3-3-3-3-3-3-|
    E|-----------------------------------------------------------------|
    then…
  • Intro
    
    G|-----------------------------------|
    D|-----------------------------------|
    A|--6-6-6-6-6-6-6-6------------------|
    E|------------------6-6-6-6-6-6-6-6--|
    
    G|-----------------------------------|
    D|-----------------------------------|
    A|-----------------------------------|
    E|--3-3-3-3-3-3-3-3-4-4-4-4-4-4-4-4--|
    
    Verse
    
    G|-----------------------------------|
    D|-----------------------------------|
    A|--6-6-6-6-6-6-6-6------------------|
    E|------------------6-6-6-6-6-6-6-6--|
    
    G|-----------------------------------|
    D|-----------------------------------|
    A|-----------------------------------|
    E|--3-3-3-3-3-3-3-3-4-4-4-4-4-4-4-4--|
    
    Pre-Chorus…
  • standard tuning 4 both guitars
    
    Chords:
    e|-x----x---x---x---x----x---x-------------|
    B|-3----3---3---3---3----3---3-------------|
    G|-2----2---0---0---2----2---0--2--4-----7-|
    D|-0----2---0---2---0----0---2--2--4--5--7-|
    A|-2----0---2---2---x----x---3--0--2--5--5-|
    E|-x----x---3---x---2----x---x--x--x--3--x-|…
  • Chords:
       C   Dm or Dm    G or G    F    Am   Em
    e|-0----1-----5----3----3----1----0----0-|
    B|-1----3-----6----0----3----1----1----0-|
    G|-0----2-----7----0----4----2----2----0-|
    D|-2----0-----7----0----5----3----2----2-|
    A|-3----x-----5----2----5----3----0----2-|
    E|-3----x-----5----3----3----1----x----0-|
    
    Standard…
  • Am - X02210
    Asus2 - X02200
    C/B - X2X010
    C/A - X0X010
    C - X32010
    Cadd9 - X32033
    D - XX0232
    Dsus4 - XX0233
    G/F# - 2X003X
    G - 320033
    G/B - X20033
    
    Intro:
    
    Am Asus2 Am Asus2
    
    Am Asus2 Am Asus2
    
    Verse:
    
    Am…
  • Intro: E C Am
              E C Am
              E C Am G D(keep D 2 bars)
    
    E         C              Am      E
         I'm losing it every day
      C                Am       E
    Finding it hard to take
          C                 Am…
  • Tuning: eBGDAD (Drop D)
    
    
    Intro
    
    e||--------------------------|
    B||--------------------------|
    G||--------------------------|
    D||--0h2-0h3-0h2-0h3-230-----| x4
    A||--0h2-0h3-0h2-0h3-230-----|
    D||--0h2-0h3-0h2-0h3-230-----|
    
    
    e||------------------------------------------|
    B||--17-17--17-17--17-17--17-17--17-17-17----|
    G||------------------------------------------|
    D||------------------------------------------|…
  • INTRO/VERSE
    
    GUITAR 1: PLAY THESE CHORDS-LISTEN TO CD FOR RHYTHM
    
        Em7  C9   Dsus4
    E|--3----3----3----|
    B|--3----3----3----|
    G|--0----0----2----|
    D|--2----2----0----|
    A|--2----3---------|
    E|--0--------------|
    
    An…
  • E|----------------------------------|
    B|-----3---3---1--1-----0h-1p-0-----|  First time
    G|-------0---0------0-----------0---|
    D|----------------------------------|
    A|--0----------0------0-------------|
    E|----------------------------------|
    
    E|----------------------------------|
    B|-----3---3---1--1-----3s-5s-3-----|…
  • Intro/Verse : -  (Repeat  x4)
    
    E : ----------------------------------------------------------------|
    B : ----------------------------------------------------------------|
    G : -- 10------------------9----------------------------------------|
    D…
  • Intro/Verse:
    B     G     A
    B     G     E
    
    Repeat 2x
    
    B
    A new day has begun
    G                         A
    And taken us now
    B
    Morning life is here
    G                                  E
    Touch, sight and sound
    
    Pre-Chorus:
    G…
  • Tuning:standard
    
    Intro:
    e|---------------------------------------------------------------------|
    B|---------------------------------------------------------------------|
    G|--13-13-13-13-13-13-13-13-13-13-13-13-13-13-13-13-13-13-13-13-13-13--|
    D|--0--0--0--0--0--0--0--0--0--0--0--0--0--0--0--0--0--0--0--0--0--0---|
    A|---------------------------------------------------------------------|
    E|---------------------------------------------------------------------|
    
    Verse:…
  • Intro: RELATIVE TO CAPO
    
    Strike G using the delay effect
    
    Verse: Here are the chords- RELATIVE TO CAPO
    
        G  G/F#  Em7 C9
    E|--3---3----3---3---|
    B|--3---3----3---3---|
    G|--0---0----0---0---|
    D|--0---0----2---2---|
    A|--2---0----2---3---|
    E|--3---2----0-------|
    
    Here's…
  • Capo 5th fret
    Chords r relative to capo
     
       D  Dsus2   C   G   F   Em7  Dm
    e|-3----0-----0---3---1----0----1-|
    B|-2----3-----1---3---1----1----3-|
    G|-3----2-----0---0---2----0----2-|
    D|-0----0-----2---0---3----2----0-|
    A|-x----x-----3---2---3----2----x-|
    E|-x----x-----3---3---1----x----x-|
    
    Intro:…
  • Standard Tuning.
    
    INTRO:
    e---9-------|
    B---10------|
    G---11------|
    D---11------|
    A---9-------|
    E-----------|
    
    VERSE: (Same rythm as Intro, just with changing chords)
    e---9---------------------------|
    B---10--------------------------|
    G---11--------------------------|
    D---11----11----12----7----7----|
    A---9-----11----12----7----7----|
    E----------9----10----5----4----|
    
    PRE…
  • Intro:
    e|----------------------------------------------| x2
    B|----------------------------------------------|
    G|--7777-------7777--------------------------7--|
    D|--7777-7777--7777-4444-55555555555555-4444-7--|
    A|--5555-7777--5555-4444-55555555555555-4444-5--|
    E|-------5555-------2222-33333333333333-2222----|…
  • Drop D Tuning
    
    Verse:
    
    E|----------------------------------------------------------------|
    B|----------------------------------------------------------------|
    G|------------------------------------12-12-12-12-12-12-12-12-12--|
    D|--12--12--12--12--12-12-12-12-12-12-12-12-12-12-12-12-12-12-12--|
    A|--10--10--10--10---9--9--9--9--9--9--8--8--8--8--7--7--7-7--7---|
    D|--10--10--10--10---9--9--9--9--9--9--8--8--8--8--7--7--7-7--7---|
    
    Corus:
    
    Gtr1:…
  • TUNE LIKE THIS: tuning CGCFAD, like so:
    
    D|-|
    A|-|
    F|-|
    C|-|
    G|-|
    C|-|
    
    GTR 1: (HEARD IN ALONE FOR INTRO)
    
    D|--------------------------------------|
    A|--------------------------------------|
    F|--------------------------------------|
    C|------14-----14-----14-----14-----14--|
    G|----0------0------0------0------0-----|
    C|--0------0------0------0------0-------|
    
    GTR…
  • Tuning: Standard 
    Capo on 2nd
    
    
    
    Chords used:
    
    
    
          G     D/F#   Em7   Cadd9  Asus4    D    Dsus2
          
    e|----3------2------0------3------0------2------3---|
    B|----3------3------3------3------3------3------3---|
    G|----0------2------0------0------2------2------2---|
    D|----0------0------2------2------2------0------0---|
    A|----2------0------2------3------0------x------x---|
    E|----3------2------0------x------x------x------x---|
    
    
    When…
  • Intro & Verse
    e|-----------------------------------------------|
    B|-----------------------------------------------|
    G|--77777777777----------------------------------|
    D|--77777777777-7777777777-9999999999-555555555--|
    A|--55555555555-7777777777-9999999999-555555555--|
    E|--------------5555555555-7777777777-333333333--|
    repeat…
  • Capo: 3rd fret
     
    Chords used:
     
    A   : 002220
    Asus: 002200
    Em  : 022000
    D   : XX0232
    D9th: XX0230
    G   : 320033
     
    Intro: Asus Em D9th x2
     
    Verse 1
     
    Asus  Em    D9th  Asus
    Trying hard to face another day,…
  • Standard Tuning
    
    Use this chords for intro, verses & choruses:
    
    G(35540x)   
    Em(02200x) 
    C(x3200x)
    
    For bridge, use normal chords:
    
    Em(022000)
    D(xx0323)
    G(320033)
    C(x32010)
    A(x02220)
    
    
    
    Intro: G   Em x2…
  • Tuning:EADGBe
    
    Played in power chords
    
    Intro/Verse:
         C        E        F             Em
    e|-------------------------------------------------|
    B|-------------------------------------------------|
    G|---55555555-99999999-10101010101010-99999999-----|
    D|---55555555-99999999-10101010101010-99999999-----|
    A|---33333333-77777777-8…
  • Tuning: Standard
    
    Intro:
    
    e|------------------------|
    B|------------------------|
    G|-7-x-7-x-77-------------|  x2
    D|-7-x-7-x-77-4-x-4-x-44--|
    A|-5-x-5-x-55-4-x-4-x-44--|
    E|------------2-x-2-x-22--|
    
    Verse:
    
    e|-----------------------|
    B|-----------------------|
    G|-7-x-7-x-77------------|…
  • D          (XX0232)
    Am         (X02210)
    C          (X32010)
    G          (32000X)
    F6/9       (1300XX)
    Em7        (0200XX)
    Emadd9     (XX20X2)
    Em/D       (XX00X0)
    
    Capo 5th Fret
    
    
    
    Intro and Verses:
    
    I---2-----------2-------------I---2------------2-------------I-----------------------------0-------I
    I-----------------------------I------------------------------I----3-------------3------------------I
    I-------0---------0-----------I-------0----------0-----------I-------0-------------0-----------0---I
    I-2-------2----------2---0----I-2-------2-----------2---0----I-------------------------------------I
    I-----------------------------I------------------------------I-3---------0--2---------0------------I
    I-----------------------------I------------------------------I-------------------------------------I
    
    Repeat…
  • Tuning: Standard
    
    Chords(gtr1):
    
        C9  G/Bb  D   Em7  Asus4  G  G/F 
    E|--3----3----2----3---3------3---3--|
    B|--3----3----3----3---3------3---3--|
    G|--0----0----2----0---2------0---0--|
    D|--2----0----0----2---2------0---0--|
    A|--3----1---------2---0------2---0--|
    E|-----------------0----------3---1--|
    
    Intro:…
  • INTRO:
    
    E|--------|
    B|--------|
    G|--------|
    D|--------|
    A|--19\---| (listen to the CD for the speed of the slide)
    E|--------|
    
    VERSE RIFF: Alternates between these two chords:
    
         A9       Emaj
    E|---0--------0---|
    B|---0--------0---|
    G|--14-------13---|
    D|--14-------14---|
    A|----------------|
    E|----------------|
    
    LINK…
  • NOTES: DROP D TUNING
    
    INTRO/VERSE RIFF:
    
    E|--------------------|
    B|-----15---------13--|
    G|-----14-----12--12--|
    D|--0------0----------|
    A|--0------0----------|
    D|--0------0----------|
    
    LINK TO CHORUS: Listen…
  • Intro/verse: The chords you need to know are:
    
        A  Asus4 A9/G  D/F#(no 3rd)
    
    e|--0---0-----0-----X--|
    B|--2---3-----0-----3--|
    G|--2---2-----2-----2--|
    D|--2---2-----2-----0--|
    A|--0---0-----0-----0--|
    E|--X---X-----3-----2--|
    
    Chord…
  • Notes: Drop D tuning
    
    Intro/verse:
    
    Note- These parts sounds a little weird on their own so play them
    individually with the CD or with someone else.
    
    Guitar 1:
    
    e|-----------------------------|
    B|-----------------------------|
    G|-----------------------------|
    D|--11-11-11-------------------|
    A|-----------10-10-10-10h12p10-|
    D|-----------------------------|
    
    Guitar…
  • Chords used (except for the standard ones):
    
      Asus2       C7M          F* (Really called F7Madd11+ or something)
     e---0---|  e---0----|  e---0---|
     B---0---|  B---0----|  B---0---|
     G---2---|  G---0----|  G---2---|…
  • Tuning: Standard
    Chords:
          EADGBe
    Cmaj |x32013|
    Cadd9|x3203x|
    Am7  |x02213|
    Asus4|x0223x|
    D5/B |x2023x|
    F    |x33211|
    Am   |x02210|
    C    |x32010|
    Gmaj |x2003x|
    
    Intro:
    Cmaj, Cadd9, Cmaj, Cadd9,      
    Am7,…
  • Notes: Drop D tuning- Listen to record for rhythms
    
    Chords you need to know
       Ddim5   C9   G/B  G/Bb
    e|--X------3-----3----3----|
    B|--3------3-----3----3----|
    G|--1------0-----0----0----|
    D|--0------0-----0----0----|
    A|--0------3-----2----1----|
    D|--0------X-----X----X----|
    
    Intro/Verse:
    
    GTR…
  • Notes  : Dropped-D Tuning
    
    Intro/Chorus:
    
    e|---------------------------------------------------------------------------|
    B|---------------------------------------------------------------------------|
    G|---------12----------------12-----------------12----------------12---------|
    D|------12----12----------12----12-----------12----12----------12----12------|
    A|---10----------10----10---------…
  • Tuning: Standard
    Capo: None
    
    Intro 1
    e|-------------------------------5---------------------------------|
    B|----1-----1-----1-----1----0-------------------------------------|
    G|--------0-----0-----0----0---5--------------x2-------------------|
    D|---2--3-----3-----3----------------------------------------------|
    A|-0---------------------------------------------------------------|
    E|-----------------------------------------------------------------|
    
    Intro…
  • Standard Tuning
    
    Chords:
    
        Bb5  Ab5  Eb/G Eb5
    E|--------------------|
    B|--------------------|
    G|-----------------8--|
    D|--8----6----5----8--|
    A|--8----6----6----6--|
    E|--6----4----3-------|
    
    
    Verse:
    
    Gtr1:
    E|----------------------------------------------------------------------|
    B|----------------------------------------------------------------------|
    G|----------------------------------------------------------------------|
    D|--8-8-8-8-8-8-8-8--8-8-8-8-8-8-8-8--8-8-8-8-8-8-8-8--8-8-8-8-8-8-8-8--|
    A|----------------------------------------------------------------------|
    E|--6-6-6-6-6-6-6-6--4-4-4-4-4-4-4-4--3-3-3-3-3-3-3-3--4-4-4-4-4-4-4-4--|
    
    Gtr2:
    E|----------------|
    B|--11p-9b…
  • Chords used:
       e a d g b e
    Dm x 5 7 7 6 5
    Gm 3 5 5 3 3 3
    Bb x 1 3 3 3 1 or 6 8 8 7 6 6
    F  1 3 3 2 1 1
    C  x 3 5 5 5 3 or 8 10 10 9 8 8
    G  3 5 5 4 3 3
    A  5 7 7 6 5 5
    
    
    Intro:
    
    Dm | Gm | x 4
    
    Verse 1:
    
         Dm…
  • Tuning: Standard 
    
    Guitar 1: Play it trough the whole song
    e|---------------------------------------------------|
    B|---------------------------------------------------|
    G|--1-3---33-XX--1-3---33-XX--1-3--33--XX--1/8--XXXX-|
    D|--2-4---44-XX--2-4---44-XX--2-4--44--XX--2/9--XXXX-|
    A|--2-4---44-XX--2-4---44-XX--2-4--44--XX--2/9--XXXX-|
    E|--0-2---22-XX--0-2---22-XX--0-2--22--XX--0/7--XXXX-|
    
    Guitar…
  • INTRO:
    
    E|--0--0--0-0--0--0--0-0--|
    B|--5--5--4-5--5--5--4-5--|
    G|------------------------|
    D|------------------------|
    A|------------------------|
    E|------------------------|
    
    Chord sequence: Cycle 1:
    
        E5…
  • Capo 2nd fret
    notes r relative to capo
    
    chords:
    
        C9 D  Em7 G/Bb  Asus4
    E|--3--2---3---3----3--|
    B|--3--3---3---3----3--|
    G|--0--2---0---0----2--|
    D|--2--0---2---0----2--|
    A|--3------2---1----0--|
    E|---------0-----------|
    
    
    Intro:…
  • Verse:
    e-16-16-16/14-14-14-14-14/11-11-11/999/77-|
    b-----------------------------------------|
    g-----------------------------------------|
    d-----------------------------------------|
    a-----------------------------------------|
    E-----------------------------------------|…
  • Intro & verse
     
    |-------------------|
    |---5-----3---------|
    |------3-----3------|
    |-------------------|
    pre-chorus fill
    |------------------------|
    |---5----3--3-2----------|
    |------3--------3--------|
    |------------------------|…
  • normal tuning
    verses
    |------------|
    |------------|
    |-5--10--8--3|
    |------------|
    
    heavy parts
    
    |-----------------|
    |---10----------10|
    |---------8--9----|
    |-10---10---------|
    
    chorus
    
    |-----------------------------------------------------|
    |-----------------------------------------------------|
    |-5-/-10--3-5---3--2--3-2-3----5--10--3--5--8-8--3-3-3|
    |-----------------------------------------------------|long…
  • Tuning: Drop D
    
    Chords:
    
        D   C9  Em7
    E|--2---3---3---|
    B|--3---3---3---|
    G|--2---0---0---|
    D|--0---0---2---|
    A|------3---2---|
    D|----------x---|
    
    Intro & Verse:
    
    Gtr 1:
    
    E|------------------------------------5------|
    B|--------------------------------------5----|
    G|------0---------0---------0-------------7--|
    D|----4---4-----4---4-----4---4--------------|
    A|------------2---------3-----------5--------|
    D|--0-----------------------------5----------|
    
    Gtr…
  • Gtr1: Capo 4th Fret
    Gtr2: Standard
    
    Chords:
    
    e|-0--3--0---1---0-----------------------|
    B|-1--3--1---1---2-----------------------|
    G|-0--0--2---2---3----5----9-------4-----|
    D|-2--0--2---3---0----5----9---5---4---3-|
    A|-3--2--0---3---x----3----6---5---2---3-|
    E|-x--3--x---1---x-------------3-------1-|…
  • DROP D TUNING
    
    INTRO/VERSE:
    
    GTR 1:
    
        D5                    Ab5
    E|----------------------------------|
    B|----------------------------------|
    G|----------------------------------|
    D|-----7-7-7-----7-7-7-7------------|
    A|-----5-5-5-----5-5-5-5------------|
    D|--0--0-0-0--0--0-0-0-0--0--6-6-6--|
    
    GTR…
  • Am Am/G F#m  D Dsus4
    e|-------------2---3---------------------------------------------------------|
    B|-1---1-------3---3---------------------------------------------------------|
    G|-0---0-------2---2---------------------------------------------------------|
    D|-2---2---3-----------------------------------------------------------------|
    A|-3---0---3-----------------------------------------------------------------|
    E|-----3---1-----------------------------------------------------------------|
    
    Am…
  • standard tuning
    
    verse:
    
    E|-----------------------------------------------------|
    B|-----------------------------------------------------|
    G|-----------------------------------------------------|
    D|------2-2---2-2---2-2-2-2------2-2---2-2-2-2-1-1-1-1-|
    A|-----------------------------------------------------|
    E|--2-2-----2-----2----------2-2-----2-----------------|
    
    E|-----------------------------------------------------|
    B|-----------------------------------------------------|
    G|-----------------------------------------------------|
    D|------2-2---2-2---2-2-2-2------2-2---4-4-4-4-3-3-3-3-|
    A|-----------------------------------------------------|
    E|--2-2-----2-----2----------2-2-----2-----------------|
    
    repeat…
  • INTRO/VERSE:
    
    GUITAR 1: ALTERNATES BETWEEN THESE TWO CHORDS
    
    E|--------|
    B|--5--5--|
    G|--2--2--|
    D|--0--2--|
    A|--0--2--|
    D|--0--2--|
    
    GUITAR 2: ADDS THIS MOTIF LATER IN THE VERSE:
    
    E|------12--|
    B|----15----|
    G|--14------|
    D|----------|
    A|----------|
    D|----------|
    
    BRIDGE:…
  • Tuning: Standard
    
    Chords used: Fm F# C# Ab Bb F# C#
    
    INTRO
    
    Fm F# C#
    Fm F# C#
    
    VERSE
    
    Fm F#                           C#
       She's always trying to work it out
    Fm F#                 C#
       Sitting in a parked…
Наверх