Аккорды «Fenix Tx»

Fenix Tx
Fenix TX - американская поп-панк группа из Хьюстона, Техас. Ребята начали играть в далеком 1995 и сначала называли себя Riverfenix. Первоначальный состав был таков: Will Salazar, Damon DeLaPaz - гитары и некий Carl - вокал. После прихода в бэнд бассиста Adam'а Lewis'a и барабанщика Donnie Reyes'а Carl сделал парням ручкой. Sallazar же не расстерялся и взял на себя роль фронтмэна Riverfenix. В 1996 команда выпустила дебютный EP G.B.O.H. на хьюстонском лэйбле Fuzzgun Records и приняла участие… Читать полностью... Fenix TX - американская поп-панк группа из Хьюстона, Техас. Ребята начали играть в далеком 1995 и сначала называли себя Riverfenix. Первоначальный состав был таков: Will Salazar, Damon DeLaPaz - гитары и некий Carl - вокал. После прихода в бэнд бассиста Adam'а Lewis'a и барабанщика Donnie Reyes'а Carl сделал парням ручкой. Sallazar же не расстерялся и взял на себя роль фронтмэна Riverfenix. В 1996 команда выпустила дебютный EP G.B.O.H. на хьюстонском лэйбле Fuzzgun Records и приняла участие в Mullets Across America Tour с такими группами как Home Grown, Cousin Oliver и The Hippos. Во время тура ребятараспространяли свои дэмо-записи, пытаясь обратить на себя внимание других звукозаписывающих лэйблов. И парочка Richard и Stefanie Reines из Mojo Records предложили парням выпустится на их новом собственном лэйбле Drive-Thru Records. К декабрю 1997 Drive-Thru выпустила одноименный альбом Riverfenix с 13-ю трэками спродюсированный Jim'ом Barnes'ом и разошедшийся в колличестве около 15 тыс. за год. Один из дисков попал в руки Mark'а Hoppus'а из blink-182 с сестрой которого по чудесной неожиданности встречался DeLaPaz (на тот момент еще гитарист) Mark'у они пришлись по нраву и он пригласил Riverfenix отыграть в будущем туре blink-182 и в конечном счете стал их менеджером. Настало время завоевывать радио-эфир. В то время как песня "Speechless" становилась все популярней, привлекая все больше заинтересованных в сотрудничестве "мажорных" лэйблов, Mark Hoppus опомнился и начал продвигать идею о переходе на лэйбл blink-182 - MCA. От таких затей Drive-Thru Records конечно же не были в восторге. А тут еще актер River Phoenix подал иск против использования командой названия Riverfenix. Все же MCA разрешили проблему с Drive-Thru путем некоторой денежной суммы, а с названием решили все достаточно просто. Парни убрали River и добавили TX, как почтовое обозначение штата Техас. Заключив сделку с MCA они перезаписали свою прошлую EP, но уже как Fenix TX выпустив, соответственно, альбом Fenix TX 13 июля 1999. Стартовав на 115 месте в "Billboard 200" альбом поднялся до 3 в Billboard's Top Heatseekers. А сингл "All My Fault" стал настоящим хитом, получив признание на авторитетных радиостанциях и в эфире TV, в качестве темы для фильма Jailbait (2000), в котором чуваки засветились в роли самих себя. Скрыть...
Популярные аккорды Fenix Tx:
алфавиту | просмотрам | случайно
  • Intro
    
    G:---------------------------------------------------------
    D:---------------------------------------------------------
    A:-7-----9--------10--9----7-------9-----------10---9------
    E:------------7---------------------------7----------------
    
    Verse
    
    G:---------------------------------------------------------
    D:---------------------------------------------------------
    A:-777777777777-----------999999999999---------------------
    E:-------------77777777777------------9999999----77777777--
    Play…
  • Legend
    -----
    x - scratch
    : - let ring
    pm - palm mute
     - slide down
    / - slide up
    b - bend
    r - release
    
    
    
    E -----------------------------------------------------------------
    B -----------------------------------------------------------------
    G…
  • e|--------------------------------------------------------------------
    B|--------------------------------------------------------------------
    G|4-------2-----------------------------------------------------------
    D|4---4---2---2-------------------------------------------------------
    A|2---4---0---2-------------------------------------------------------
    E|----2-------0-------------------------------------------------------
    
    You…
  • >=Let ring
    
    E--------------------
    B--------------------
    G--------------------  x2 No Gain Hit notes near the bridge
    D-33-3/5-33-1/3-3-3--
    A-44-----11-----1---3
    E--------------------
    
    E--------------------------
    B--------------------------
    G--------------------------…
  • Intro/Verse
    Palm Muted
           E        G#       A      B
    e|---------------------------------------------------------|
    B|---------------------------------------------------------|
    G|-----9---------------------------------------------------|
    D|-----9--------6--------7------9--------------------------|
    A|-----7--------6--------7------9--------------------------|
    E|--------------4--------5------7--------------------------|
    
    Riff…
  • Standard Tuning
    
    Intro: No bass for a small bit....
    
    Intro/Bridge
    G|-------------------------------------
    D|----------4--------------------------
    A|-----5-55--555-----------------------
    E|----------------3-3/5-555------------
    
    Verse…
  • Half Step Down TuningIntro:
    Guitar 1:
    --------0-------------0------------
    --------0-------------0------------
    -----------------------------------
    -2-------------2---------------
    -2-------------2---------------
    -0-------------0---------------…
  • Riff A:
    e----------------- 
    B----------------- 
    G----------------- 
    D-2-22-22-2-22-22- 
    A-2-22-22-2-22-22- 
    E-0-00-00-0-00-00- 
                            
    Verse Riff                                                    
    |------------------------------------------------------------
    |------------------------------------------------------------
    |------5555------7777----------------------------------------
    |-2222-5555-5555-7777----------------------------------------
    |-2222-3333-5555-5555----------------------------------------
    |-0000------3333---------------------------------------------…
  • Lead intro
    E-3-3-3-35-3-3-3-35-3-3-3-35-3-3-2-2--|
    B--3-3-3----3-3-3----3-3-3----3-3-3-3-|x2
    
    Rhythm intro	
    E-------------------------|
    B-------------------------|
    G-------5--------------7--|
    D-5-----5-----2-----7--7--|x2
    A-5-----3-----2-----7--5--|
    E-3-----3-----0-----5--5--|
    
    Verse
    E-----------------|
    B-----------------|
    G-----5---------7-|x2
    D-5---5---2---7-7-|
    A-5---3---2---7-5-|
    E-3---3---0---5-5-|
    Pmx…
  • here it goes the guitar solo for al my fault
    e_----------------------------------------------------------
    b_----------------------------------------------------------
    g_-------11-12--11-12-14--12-11-12--12-11-12-11-------------
    d_-12-14----------------------------------------14----------
    a_----------------------------------------------------------
    e_----------------------------------------------------------
    
    
    e_----------------------------------------------------------
    b_----------------------------------------------------------
    g_----------------------------------------------------------
    d_-12-11-12-11-12-11-12--14-12-11----12-11-12-11-12-11-12-11
    a_--------------------------------12------------------------
    e_----------------------------------------------------------
    
    
    e_---------------------------------------------------------
    b_---------------------------------------------------------
    g_---------------------------------------------------------
    d_-14(4…
  • >means to play how many times you want to.
    
    Intro / Verse / 1st Chorus
    (the number of times vary, but the notes are the same)
    G-----------------
    D-----------------
    A--3>-----5>------
    E------3>-----1>--
    
    #2
    G-------------------
    D-------------------
    A--3>-----5>--------
    E-----3>------1>–3>-
    
    #3…
  • Intro:
    e--------------------------------------------------------------------
    b--------------------------------------------------------------------
    G---10-10-10-10-10-10-10-10--10-9-7--10--------10-9-7----------------
    D----x--x--x--x--x--x--x--x---x-x-x---x---------x-x-x---4------------
    A----8--8--8--8--8--8--8--8---8-7-5---8---------8-7-5---4------------
    E-------------------------------------------------------2------------
    
    e--------------------------------------------------------------------
    b--------------------------------------------------------------------
    G--10-------10-9-7----10-------12-10----10-9-7-----------------------
    D---x--------x-x-x-----x--------x--x-----x-x-x-----------------------
    A---8--------8-7-5-----8-------10--8-----8-7-5-----------------------
    E--------------------------------------------------------------------
    
    Verse:
    e--------------------------------------------------------------------
    b-------------3------------------------------------------------------
    G-----5-------3------------------------------------------------------
    D-3---5---5---1------------------------------------------------------
    A-3---3---5----------------------------------------------------------
    E-1-------3----------------------------------------------------------
    
    Chorus:
    e--------------------------------------------------------------------
    b--------------------------------------------------------------------
    G-----5--------------------------------------------------------------
    D-3---5---3----------------------------------------------------------
    A-3---3---3----------------------------------------------------------
    E-1-------1----------------------------------------------------------
    
    Bridge:
    e--------------------------------------------------------------------
    b--------------------------------------------------------------------
    G--7-10-9-7-7-10-9-12-7-10-9-12-14-7-10-9-12-14-7-10-12-14-15--------
    D--x--x-x-x-x--x-x--x-x--x-x--x--x-x--x-x--x--x-x--x--x--x--x--------
    A--5--8-7-5-5--8-7-10-5--8-7-10-12-5--8-7-10-12-5--8-10-12-13--------
    E------------------------------------------------…
  • Tuning: Standard
    
    * - Let Ring 
    
    Intro and Verse:
    G|---------------------------------------------------
    D|---------------------------------------------------   
    A|-------222222------222222------222222------444444--
    E|-222222------222222------222222------444444--------
    
    Chorus:
    G|-----------------------------------I----------------------
    D|-----------------------------------I----------------------
    A|-99999999--------------------------I----------------------
    E|---------99999999-7777777777777777-I-xxxxxxxx-9-xxxxxxxx--…
  • >means to play as many times as you see fit
    
    Intro/Verse
    G------------------
    D------------------
    A-5>--2>-----------
    E---------3>----5>-
    
    Chorus
    G-----------------------------
    D-----------------------------
    A-2>------5>------2>----------
    E-----3>------5>-------3>---5>…
  • M = palm mute
    
    Flat Tuning
    (tuned down 1/2 a step)
    
    INTRO (Both Guitars)
    |-------------------|      |---|
    |-------------------|      |---|
    |-66--22--66--44----|      |-6-|
    |-66--22--66--44-44-| x 2  |-x-| x 57 (with phaser…
  • Intro:
    G:----------------------------------------------
    D:-5-4-0-0-0-0--5-4-2-2-2-2--5-4-7-7-7-7--5-4~--
    A:----------------------------------------------
    E:----------------------------------------------
    
    Verse:
    G:----------------------------------------------------
    D:----------------------------------------------------
    A:--5-5-5-5-5-5-5-5-----------------------------------
    E:------------------5-5-5-5-5-5-5-5--3-3-3-3-3-3-3-3--
    
    Riff…
  • Riff 1:        Guitar 1:
    |--------------------------------------------------|
    |--------------------------------------------------|
    |--9-----------7-----------------------------------|
    |--9-(9----)---7-(7----)---7-----------9-----------|…
  • Intro
    |--------------------------------------------------------------------|
    |--------------------------------------------------------------------|
    |---14-14-14--11-11-11--12-12-12--11-11-11--9--11--7--11--7----------|
    |----0--0--0--0---0--0---0--0--0---0--0--0--0---0--0--0---0----------|
    |--------------------------------------------------------------------|
    |--------------------------------------------------------------------|
    
    |---------------------------------------------------------------------|
    |---------------------------------------------------------------------|
    |-----777777777777777--444444444444444444-----------------------------|
    |-----777777777777777--444444444444444444-----------------------------|
    |-----555555555555555--222222222222222222-----------------------------|
    |---------------------------------------------------------------------|
    
    Verse
    |------------------------------------------------------------|
    |------------------------------------------------------------|
    |---------------7---------------------7------------7---------|…
  • Intro. x2  Palm Mute
    e|---------------------------------------------------------------------------|
    B|---------------------------------------------------------------------------|
    G|---9-9-9-9-9-9-9-9---------------------------------------------------------|
    D|---9-9-9-9-9-9-9-9-9-9-9-9-9-9-9-9--7-7-7-7-7-7-7-7--9-9-9-9…
  • = slide down
    / = slide up
    ~ = ring out
    
    Intro:-----------------------(Guitar 1 Part)--------------------------------
    e|-------------------|
    B|-------------------|
    G|-----------------5-|
    D|-3-55-3-55-3-55--5-|
    A|-3-55-3-55-3-55--3-|…
  • Intro
    e|---------------------------------------------------------------------------|
    B|---------------------------------------------------------------------------|
    G|-7-9-7-11-9-7--7-9-7-11-9-7------------------------------------------------|
    D|-x-x-x-x--x-x--x-x-x-x--x-x------------------------------------------------|
    A|-5-7-5-9--7-5--5-7-5-9--7-5------------------------------------------------|
    E|---------------------------------------------------------------------------|
    Verse
    e|---------------------------------------------------------------------------|
    B|---------------------------------------------------------------------------|
    G|-----------------7-7-7-7-----------------7-7-7-7---------------------------|
    D|-5-5-5-5-7-7-7-7-7-7-7-7-5-5-5-5-7-7-7-7-7-7-7-7---------------------------|
    A|-5-5-5-5-7-7-7-7-5-5-5-5-5-5-5-5-7-7-7-7-5-5-5-5---------------------------|
    E|-3-3-3-3-5-5-5-5---------3-3-3-3-5-5-5-5-----------------------------------|
    Chorus
    e|---------------------------------------------------------------------------|
    B|---------------------------------------------------------------------------|
    G|-4-4-4-3-3-3-7-7-7-7--4-4-4-3-3-3-7-7-7-7-4-4-4-3-3-3-7-7-7---------7-7----|
    D|-4-4-4-3-3-3-7-7-7-7--4-4-4-3-3-3-7-7-7-7-4-4-4-3-3-3-7-7-7-5-5-4-4-7-7----|
    A|-2-2-2-1-1-1-5-5-5-5--2-2-2-1-1-1-5-5-5-5-2-2-2-1-1-1-5-5-5-5-5-4-4-5-5----|
    E|------------------------------------------------------------3-3-2-2--------|…
Наверх