Аккорды «Firehouse»

Firehouse
Организовали данный проект, исполняющий мелодичный коммерческий хард-рок, бывшие участники "Maxx Warrior" вокалист Карл Снэре и басист Перри Ричардсон, взявшие себе на подмогу гитариста Билла Леверти и барабанщика Майкла Фостера. Каким-то чудом квартету удалось вскочить в уходящий поезд "волосатых команд" и успеть огрести изрядную долю успеха перед нашествием гранжа. Сделав несколько демок под руководством Даны Струм и Марка Слотера, группа заполучила контракт от "Epic". Но тут оказалось, что в… Читать полностью... Организовали данный проект, исполняющий мелодичный коммерческий хард-рок, бывшие участники "Maxx Warrior" вокалист Карл Снэре и басист Перри Ричардсон, взявшие себе на подмогу гитариста Билла Леверти и барабанщика Майкла Фостера. Каким-то чудом квартету удалось вскочить в уходящий поезд "волосатых команд" и успеть огрести изрядную долю успеха перед нашествием гранжа. Сделав несколько демок под руководством Даны Струм и Марка Слотера, группа заполучила контракт от "Epic". Но тут оказалось, что в Канаде уже существует банда "White heat" (а поначалу наши герои именовались также), и вывеску пришлось поменять на "Firehouse". Одноименный альбом, вышедший в 1990 году, оказался настолько сильным, что у себя на родине получил "платину", а в таких странах как Канада, Япония и Сингапур – "золото". На следующий год команда зарабатывала себе концертную славу, гастролируя по Америке в компании "Warrant" и "Trixter" и разогревая "Status Quo" в Европе. Тем временем синглы "Firehouse" бомбардировали чарты, а песни группы частенько крутились в эфире. Второй диск, "Hold your fire", раскупался очень даже неплохо (общий тираж больше миллиона), но достигнуть успеха дебютной работы не смог. Вслед за мировым туром 1993 года в команде наступил творческий застой, и третий альбом вышел только в 1995-м. Спродюсированный Роном Невисоном, диск намного уступал двум первым релизам. В итоге в родных Штатах пластинка провалилась, тем паче, что уже наступила эпоха гранжа. "Тройка" пользовалась спросом лишь в некоторых странах юго-восточной Азии. "Firehouse" попытались реабилитировать себя, выпустив акустический альбом с соответствующим названием "Good Acoustics". Однако старания музыкантов пропали даром и контракт с "Epic" был утерян. Но "пожарные" все же не теряли надежды и возвратились в 1998-м с новой работой "Category 5". Правда, диск вышел только в Японии и юго-восточной Азии, а в Америке его можно было купить только через интернет и во время концертов группы. Впрочем, ставка на азиатов была сделана не зря, ведь, например, в Стране Восходящего Солнца "Category 5" занял четвертое место, а тамошние гастроли "Firehouse" прошли с аншлагами. По мотивам одного из таких концертов, состоявшегося в Осаке был записан "лайв" "Bring 'em Out". Диск вышел сначала в Японии, и лишь почти через год – в Штатах. Перед очередными сессиями, в 2000 году команду покинул Ричардсон, а его место занял Брюс Вэйбел, ранее работавший с Грегом Оллманом. Он пробыл в коллективе до октября 2002-го, потрудившись на записи "O2" и поучаствовав в североамериканских гастролях, на которых "Firehouse" играли вместе с "Warrant", "Ratt", "Dokken" и "L.A. Guns". Короткое время должность басиста занимал Барри Спаркс, а в феврале 2003-го новым "фаерхаусником" стал Дарио Сейксас. Обновленная конфигурация записала альбом "Prime time", выход которого был омрачен известием о смерти Брюса Вэйбела. Между тем чехарда с басистами продолжилась и вскоре четырехструнку взял Аллен Маккензи. Его дебют состоялся на европейских гастролях, прошедших весной 2004-го в компании с Дэнни Воэном и "Deadline". Скрыть...
Популярные аккорды Firehouse:
алфавиту | просмотрам | случайно
  • Intro & verses:
                          G                                    Am7                       G/B                   
           G
    e------------------------------3------!------------0-----------!----------------0--------!-------------#
    b----------------------------------3--!-----------------1------!--------------------------!------------#
    g--------0-----------------0----------!---------0--------------!-----------0-------------!----------0--#
    d--0h2------0-----------------------!-------------------------!--------------------------!-------------#
    a-------------------------------------!----0--------------------!----2--------------------!------------#
    e----------------0--2--3-------------!-------------------------!--------------------------!-----3------#…
  • ----------------------------------------------------------------------------|-
    ----------------------------------------------------------------------------|-
    -----------------0-2-5-4---------0-2-5-4--0-2-3-------0-2-5-4---------0-2-5-|-
    ----------------------------------------------------------------------------|-
    ----------------------------------------------------------------------------|-
    -------------3--------------0-3--------------------3-------------0-3--------|-…
  • -|----------------3-----------------0--------------3----------------0---------|
    -|--------------3---3-------------3---3----------5---5------------3---3-------|
    -|------------0-------0---------2-------2------4-------4--------2-------2-----|
    -|----------0-----------0-----0-----------0--------------2----------------0---|
    -|------------------------------------------0---------------------------------|
    -|--------3----------------2--------------------------------2-----------------|…
  • Solo:
    ---------------------------------5-----------------5-5-7b-5-------------------|
    -----5-7b-5-----------5-7b-7-5-----------5-8-8-7-8-------------------17-17----|
    ---7--------7-7-----7----------7-------7--------------------------19----------|
    -7----------------7------------------7-------------------------19-------------|
    ------------------------------------------------------------------------------|
    ------------------------------------------------------------------------------|
    
    
    ------------------------------------------------------------------------------|
    ----------20-------19-------17-------19-------------20-------19---------------|
    ----19-------19-------19-------19-------19----19-------19-------19------------|
    -19----19-------19-------19-------19-------19----19-------19-------19---------|
    ------------------------------------------------------------------------------|
    ------------------------------------------------------------------------------|
    
    
    ------------------------------------------------------------19b-19b-7--7-7-7--|
    -17-------19-------------20-------19-------17----20------17-------------------|
    ----19-------19----19-------19-------19-------19----19------------------------|
    -------19-------19----19-------19-------19-------------19---------------------|
    ------------------------------------------------------------------------------|
    ------------------------------------------------------------------------------|
    
    
    -21b-17-----------------------------------------------------------------------|
    --------20-19-19-19h20p19-17--------------------------------------------------|
    -----------------------------19-----------------------------------------------|
    ------------------------------------------------------------------------------|
    ------------------------------------------------------------------------------|
    ------------------------------------------------------------------------------|…
  • Intro: (2 times)
    
                                             Dsus4   D Dsus2 D
    E---------3-3-------3-3---------3-3-----|-3------2--0----2----------
    B---------0-0-------0-0---------0-0-----|-3------3--3----3----------
    G----2/4------4-4/5-----5--4/5-------5--|-2------2--2----2----------
    D---------------------------------------|-0------0--0----0----------
    A---------------------------------------|-0------0--0----0----------
    E---------------------------------------|---------------------------
    
    
    The…
  • Tune: D A F C G D 
    
    
    Intro: play Riff 1 twice
    
    Riff 1
    
        Am                    F                     G
    d |----------------0------0h1------------0------3----------------
    A |-0h1--3p1---1-----1----0h1--3p1---1-----1----3--3p1---1---0---
    F…
  • Intro: A - D - A - D  }x4 E  
     
     A  
    I don't care what they say, I know this is right 
     Bm                              E  
    Because I feel it deep in my heart 
     A  
    They say we're young and wild and we should wait…
Наверх