Аккорды FireLake - Dirge For The Planet (OST "Stalker")

Добавлено: @romashka
Дата добавления: 08 Января 2022г.
Рейтинг:
0.0
Просмотров: 15
Транспонировать - +
Intro:
E|--0-----2-----3----7-----3-----2----------0-----2---3-----2-----0---|
B|----0-----0-----0----0-----0-----0--3-------3-----3---5-----3-----3-|
G|------0-----0----------0-----0--------0-------0---------0-----0-----|   x2
D|----------------------------------------0-----------0---------------|
A|------------------------------------3---------------------------3---|
E|--0----------------0------------------------------------------------|

E|----------------------------|
B|----------------------------|
G|----------------------------|
D|--------4-5-4-----------4-5-|
A|----2/3-------3/2---2/3-----|
E|--0---------------0---------|


Verse 1:
Em    C            D             C
   Miraculous crystal given by stars
Em        C           D         C
   I can foresee the future in fabulous glass
Em       C                        D            C
   Lie spilt on the caves mock scribbled on us
Em          C        D       C
   Earth's doom day is close


Chorus:
Em         C                    D         C            (G>F#>)
   Dancing on the ashes of the world I behold the stars
Em        C                     D          C
   Heavy gale is blowing to my face rising up the dust
Em         Hm                      D                   Am          (G>F#>)
   Barren lands are desperate to blossom dark stars strive to shine
Em            Hm             D              Am
   I still remember the blue ocean in this dying world


Repeat Intro;


Verse 2:
Em      C                   D          C
   The seas overdumped the rivers are dead
Em       C              D        C
   All planet's cities turned a deserted land
Em        C         D              C
   Annihilation declares its day (declares its day)
Em       C   D               C
   Life slowly utters me "remain"


Interlude:
E|-7-7-(5-7-5)-----------0-----2---3-----2-----0-------------------|         
B|-------------8-7-3-------3-----3---5-----3-----3---------0-------|         |
G|-------------------0-------0---------0-----0-----------0---0---0-|         |
D|---------------------0-----------0-------------------4-------4---|         |
A|-----------------3---------------------------3-----2-------------|         |
E|-------------------------------------------------0---------------|         |
                                                                             } x2
E|-----------------------0-----2---3-----2------0-------------------------|  |
B|---------0-------3-------3-----3---5-----3------3---------0-------------|  |
G|-------0---0---0---0-------0---------0-----0------------0---0---0-------|  |
D|-----4-------4-------0---------0----------------------4-------4-------4-|  |
A|---2-------------3----------------------------3-----2---------------2---|  |
E|-0------------------------------------------------0---------------0-----|  /


Repeat Chorus;


Outro:
E|--0-----2-----3----7-----3-----2---|
B|----0-----0-----0----0-----0-----0-|
G|------0-----0----------0-----0-----|   x4
D|-----------------------------------|
A|-----------------------------------|
E|--0----------------0---------------|

E|-----------|
B|-----------|
G|-----------|
D|-------4-5-|
A|---2/3-----|
E|-0---------|

-END- 
Наверх