Аккорды Five Finger Death Punch - I.M.Sin

Добавлено: @romashka
Дата добавления: 10 Марта 2018г.
Рейтинг:
0.0
Просмотров: 45
Транспонировать - +
Intro: x2
   E5    A#5 E5 F5 F#5 G5 A5  A#5 B5  E5    A#5 E5 F5 F#5 G5 A5  A#5 B5
4)---------3---------------2--3--4------------3---------------2--3--4-
5)-2--2-2--1-2--3---4---5--0--1--2----2--2-2--1-2--3---4---5--0--1--2-
6)-0--0-0----0--1---2---3-------------0--0-0----0--1---2---3----------

Verse:
  E5  A#5 E5 G5   E5    A#5 E5 G5 
4)-----3-----------------3-------
5)-2---1--2--5----2--2---1--2--5-
6)-0------0--3----0--0------0--3-

E5

 A#5  E5  G5     E5  A#5 E5 G5 E5  
You're a fucking poser, 
 A#5   E5  G5    E5 A#5 E5 G5 E5    
That's all you'll ever be!
A#5   E5  G5   E5 A#5 E5 G5 E5  
Don't get any closer
A#5 E5    G5       E5 A#5 E5 G5 
Or you'll meet the real me!

Dm
I am who I am, 
Dm
You can't destroy me!
Dm
I am what I am, 
Dm
You can't deny me!

Chorus:
Em      G
I want out,
    D              C    /  
But I could never surrender.
  D       Em      G        
Try and break me down, 
    D                C /
But I won’t let you win.
 D       Em      G 
You can call me out, 
        D               C  /                  
But I know you’re a pretender.
 D        Em          G
You may think you're God, 
        D             C
But I know that I am sin! (I AM SIN!)

Intro x2:
   E5    A#5 E5 F5 F#5 G5 A5  A#5 B5  E5    A#5 E5 F5 F#5 G5 A5  A#5 B5
4)---------3---------------2--3--4------------3---------------2--3--4-
5)-2--2-2--1-2--3---4---5--0--1--2----2--2-2--1-2--3---4---5--0--1--2-
6)-0--0-0----0--1---2---3-------------0--0-0----0--1---2---3----------
                         I AM SIN!                          I AM SIN!

Verse:
E5 A#5 E5 G5    E5 A#5 E5 G5   E5   
I won’t fucking buy it!
 A#5 E5 G5       E5 A#5 E5 G5   E5
I never have and I never will!
A#5  E5  G5   E5 A#5 E5 G5   E5
Keep fucking trying!
A#5  E5  G5               E5  A#5 E5 G5 
I'm just waiting for the blood to spill!

Dm
You are, who you are, 
Dm
I can't explain it!
Dm
You are, what you are, 
Dm
To me you're not shit. No!

Chorus:
Em      G
I want out,
    D              C    /  
But I could never surrender.
  D       Em      G        
Try and break me down, 
    D                C /
But I won’t let you win.
 D       Em      G 
You can call me out, 
        D               C  /                  
But I know you’re a pretender.
 D        Em          G
You may think you're God, 
        D             C
But I know that I am sin!  (I AM SIN!)

Bridge: 
C5 x19
If there was ever a time you needed to walk the fuck away,
                                      C5
It's right fucking now, right fucking here!

Chorus:
Em      G
I want out,
    D              C    /  
But I could never surrender.
  D       Em      G        
Try and break me down, 
    D                C /
But I won’t let you win.
 D       Em      G 
You can call me out, 
        D               C  /                  
But I know you’re a pretender.
 D        Em          G
You may think you're God, 
        D             C
But I know that I am sin!  (I AM SIN!)

Outro: x2
   E5    A#5 E5 F5 F#5 G5 A5  A#5 B5  E5    A#5 E5 F5 F#5 G5 A5  A#5 B5
4)---------3---------------2--3--4------------3---------------2--3--4-
5)-2--2-2--1-2--3---4---5--0--1--2----2--2-2--1-2--3---4---5--0--1--2-
6)-0--0-0----0--1---2---3-------------0--0-0----0--1---2---3----------
                         I AM SIN!                          I AM SIN!

Бой на Dm: v v V v  v v V v. Бой Chorus: V v ^ ^ v ^. Бой Bridge: V^v^v v v^.
comments powered by Disqus
Наверх