Аккорды Five Finger Death Punch - Here To Die

Добавлено: @romashka
Дата добавления: 21 Марта 2018г.
Рейтинг:
0.0
Просмотров: 305
Транспонировать - +
Intro: x2
   B5                                        B5                      G5    /    A5 
4)-4---------------------------------0-2-3-|-4----------------------------------------
5)-2--5--3-3-3--5--3-3-3--5--3-3-3---------|-2--5--3-3-3--5--3-3-3---5-5-5-5-5--7-7-7-
6)-----------------------------------------|-------------------------3-3-3-3-3--5-5-5-
                x3                                          x1

Verse:
   B5                              B5 D5 B5                               D5 B5
4)-4--------------------------------4-7--4--------------------------------7--4-------------------------------
5)-2--5--3-3-3--5--3-3-3--5--3-3-3--2-5--2--5--3-3-3--5--3-3-3--5--3-3-3--5--2--5--3-3-3--5--3-3-3--5--3-3-3-
6)-----------------------------------------------------------------------------------------------------------

  B5 D5 B5                      G5    /    A5   
4)-4-7--4----------------------------------------
5)-2-5--2--5--3-3-3--5--3-3-3---5-5-5-5-5--7-7-7-
6)------------------------------3-3-3-3-3--5-5-5-

B5                               B5 D5
This wasn't meant to be a love song,
B5                             D5
Matter fact this one's about hate.
B5                                 B5 D5
I fuckin' said it, I don't regret it
B5                              G5 / A5
A little much? You're a little too late.

Chorus:
Bm                    D
I've turned away just one too many times
     A                     E
I'm tired of the reasons, sick of all the lies.
Bm                 D
I looked away just one too many times
     A                         E 
I'm tired of pretending, that I'm not here, 
E                Bm                           
I'm not here to die.

   B5                                        B5                      G5    /    A5 
4)-4---------------------------------0-2-3-|-4----------------------------------------
5)-2--5--3-3-3--5--3-3-3--5--3-3-3---------|-2--5--3-3-3--5--3-3-3---5-5-5-5-5--7-7-7-
6)-----------------------------------------|-------------------------3-3-3-3-3--5-5-5-
                x3                                          x1

Verse:
B5                              B5 D5
You want my best, you get the worst
B5                                               D5
You're not the last and you ain't the fucking first
B5                           B5 D5
You die to live, I live to die.
B5                       G5       /       A5              
Still that motherfucker finger's in the sky.

Chorus:
Bm                    D
I've turned away just one too many times
     A                     E
I'm tired of the reasons, sick of all the lies.
Bm                 D
I looked away just one too many times
     A                         E 
I'm tired of pretending, that I'm not here, 
E                Bm                           
I'm not here to die

Bridge:
  F#5       E5 G5    F#5       E5 G5    F#5       E5 G5 F#5 G5         A5         
5)-4-4-4-4-4-2-5-5-4--4-4-4-4-4-2-5-5-4--4-4-4-4-4-2-5-5-4--5-5-5-5-5--7-7-7-
6)-2-2-2-2-2-0-3-3-2--2-2-2-2-2-0-3-3-2--2-2-2-2-2-0-3-3-2--3-3-3-3-3--5-5-5-
F#5    E5 G5       F#5   E5 G5
I've been hated by better
F#5       E5 G5  F#5     G5 A5       
I've been beaten by the best
F#5  E5 G5    F#5 E5 G5
It's not a gift,
F#5  E5 G5 F#5      G5  A5            
It's a motherfucking test

C#5  C#5  C#5  E5 / B5 } x3 
C#5  C#5  C#5  G5 / A5
 
Chorus:
Bm                    D
I've turned away just one too many times
     A                     E
I'm tired of the reasons, sick of all the lies.
Bm                 D
I looked away just one too many times
     A                         E 
I'm tired of pretending, that I'm not here, 
E                Bm                           
I'm not here to die

Outro:
   B5                                        B5                      G5    /    A5 
4)-4---------------------------------0-2-3-|-4----------------------------------------
5)-2--5--3-3-3--5--3-3-3--5--3-3-3---------|-2--5--3-3-3--5--3-3-3---5-5-5-5-5--7-7-7-
6)-----------------------------------------|-------------------------3-3-3-3-3--5-5-5-
                x3                                          x1
                             Not here to die                

Бой: V v ^ ^ v v v^
Наверх