Аккорды «Flickerstick»

Flickerstick
Группа «Flickerstick» была создана в 1994 году в штате Техас и стала известной после участия в престижном конкурсе VH1's acclaimed «Bands on the Run», где номинировалась на премию «Эмми». А ее создателями стали двое гитаристов Brandin Lea и Cory Kreig, игравшие в то время в одной из местных групп. Один из них пригласил в коллектив своего брата, и трио приступило к работе. Группа стала быстро обрастать славой. У них появлялось все больше и больше поклонников и, собрав достаточно денег со своих концертов,… Читать полностью... Группа «Flickerstick» была создана в 1994 году в штате Техас и стала известной после участия в престижном конкурсе VH1's acclaimed «Bands on the Run», где номинировалась на премию «Эмми». А ее создателями стали двое гитаристов Brandin Lea и Cory Kreig, игравшие в то время в одной из местных групп. Один из них пригласил в коллектив своего брата, и трио приступило к работе. Группа стала быстро обрастать славой. У них появлялось все больше и больше поклонников и, собрав достаточно денег со своих концертов, музыканты записали свой первый дебютный альбом под названием «Welcoming Home the Astronauts». Диск имел успех у жителей Далласа и его окрестностей. Ребят стали приглашать на все местные музыкальные мероприятия и радиостанции. Вскорости, пройдя жесткий отбор, они получили приглашение на телевизионное шоу «Bands on the Run». Из двух тысяч команд, подавших свои кандидатуры, было выбрано всего лишь четверо, и группа «Flickerstick» была среди них. Борьба за главный приз была нелегкой, но все же они смогли его выиграть. Победа в конкурсе принесла им контракт с известной компанией «Epic Records». Под этим брендом был переиздан их первый дебютный альбом. Но, увы, он был не очень продаваем. Став очевидцами страшной трагедии в 2001 году, которая заметно отразилась на их творчестве, они записали новый альбом «Causing a Catastrophe». Затем было проделано много работы, были выпущены новые диски. Но в 2009 году группа «Flickerstick» объявила о своем распаде. Скрыть...
Популярные аккорды Flickerstick:
алфавиту | просмотрам | случайно
  • tuning: Standard
    
    verses:
    
    G ----------------------------------------------------------------
    D -----------------------------------------------------------------
    A --5-5-5-5-------------------------5-5-5-5------------------------
    E…
  • Intro and Verse:
    G--------------------------------------------------+
    D--------------------------------------------------+
    A--0--7--5--2-4-2--0--7--5--2-4-2------------------+
    E--------------------------------------------------+
    
    Keep…
  • E:-----0-------0------0-------0-------------------
    B:------------------------------------------------
    G:-1/2----1/2-----1/2----1/2----------------------
    D:------------------------------------------------
    A:------------------------------------------------
    E:------------------------------------------------
    
    
    
    E:-----12121212----9999-----------------------------
    B:--999---------999-----999-1212-9----999-1212-9----
    G:--------------------------------11-9----------11-9
    D:--------------------------------------------------
    A:--------------------------------------------------
    E:--------------------------------------------------
    
    That…
  • Chords played along with organ and throughout the verses:
    
    G: 320033
    Cadd9: x32033
    
    Prechorus Riff (Played with Volume Swell):
    
    e|----------------------------------------------------------------------------------------------|
    B|-15-15-15-15-15-15-15-17-13-13-13-13-13-13-13-15-12-12-12-12-12-12-12-13-11-11-11-11-11-11-11-|
    G|----------------------------------------------------------------------------------------------|
    D|----------------------------------------------------------------------------------------------|
    A|----------------------------------------------------------------------------------------------|
    E|----------------------------------------------------------------------------------------------|
    
    Chorus…
  • e---------------------------------------------------------------|
    B-7/15--7--15--17--12-15-12-10-12-10-7-10-10-7-5-3-5-7-8--------|
    G---------------------------------------------------------------|
    D---------------------------------------------------------------|
    A---------------------------------------------------------------|
    E---------------------------------------------------------------|
    
    e---------------------------------------------------------------|
    B-15--7--15--17--12-15-12-10-12-10-7-10-10-7-5-3-5-7-7----------|
    G---------------------------------------------------------------|
    D---------------------------------------------------------------|
    A---------------------------------------------------------------|
    E---------------------------------------------------------------|
    
    e-15--15-15-15--14-------15--15-15-15--14-------15--15-15-15--14-------15--15-15-15-14----------|
    B------------------17-17------------------15-15------------------17-17-----------------15-15-15-|
    G-----------------------------------------------------------------------------------------------|
    D-----------------------------------------------------------------------------------------------|
    A-----------------------------------------------------------------------------------------------|
    E-----------------------------------------------------------------------------------------------|
    
    e-15--15-15-15--14-------15--15-15-15--14-------15--15-15-15--14-------15--15-15-15-14--------|
    B------------------17-17------------------15-15------------------17-17-----------------15-15--|
    G---------------------------------------------------------------------------------------------|
    D-----------------------------------------------------------------------------------------------|
    A-----------------------------------------------------------------------------------------------|
    E-----------------------------------------------------------------------------------------------|
    
    e-3-333-2-2-2-3-3-3-2-2-5-3-2-0---3-333-2-2-2-3-3-3-2-2-5-3-2-0---|
    B-------------------------------3-------------------------------3-|
    G-----------------------------------------------------------------|
    D-----------------------------------------------------------------|
    A-----------------------------------------------------------------|
    E-----------------------------------------------------------------|
    
    e-3-333-2-2-2-3-3-3-2-2-5-3-2h3p2-0---3-2h3p2-0---3-2h3p2-0---3-2h3p2-0---3-2h3p2-0----|
    B-----------------------------------3-----------3-----------3-----------3-----------3--|
    G--------------------------------------------------------------------------------------|
    D--------------------------------------------------------------------------------------|
    A--------------------------------------------------------------------------------------|
    E--------------------------------------------------------------------------------------|
    
    e-3-2h3p2-0---3-2h3p2-0---3-2h3p2-0---3-2h3p2-0---3-2h3p2-0---3-2h3p2-0---3-2h3p2-0---|
    B-----------3-----------3-----------3-----------3-----------3-----------3-----------3-|
    G-------------------------------------------------------------------------------------|
    D-------------------------------------------------------------------------------------|
    A-------------------------------------------------------------------------------------|
    E-------------------------------------------------------------------------------------|
    
    e-5-2h3p2-0---3-2h3p2-0---3-2h3p2-0---3-2h3p2-0---3-2h3p2-0------|
    B-----------3-----------3-----------3-----------3-----------3-0--|
    G----------------------------------------------------------------|
    D----------------------------------------------------------------|
    A----------------------------------------------------------------|
    E----------------------------------------------------------------|…
  • Standard tuning
    
    Pedals most likely in use: Flanger, Distortion, Tremolo/Vibrato,
      possibly a Volume pedal
    
    Intro and chorus:
    
    E--------------------------------------------|
    B--------------------------------------------|
    G--------------------------------------------|
    D--7-7-7-7-7--4/5-5-5-x-5-x-5-x-5------------|
    A--7-7-7-7-7--4/5-5-5-x-5-x-5-x-5------------|
    E--5-5-5-5-5--2/3-3-3-x-3-x-3-x-3------------|
    ..Leave…
  • Drop D tuning
    
    Pedals most likely in use: Super Chorus
    
    This is basically the whole song:
    
    
    E-------------------------|
    B-------------------------|
    G-------------------------|
    D--4---6---5---4---5------|
    A--5---5---5---5---5------|
    D--0---0---0---0---0------|
    
    ...listen…
  • intro:
    
    G|---------------|
    D|-----12--9-----|repeat 4x, then the guitar comes in, 
    A|-10------------|keep playing untill verse
    E|------------10-|
    
    verse/chorus
    
    G|------------------------------------------------|
    D|--------------12-12-12-12--9-9-9-9--------------|
    A|-10-10-10-10------------------------------------|
    E|------------------------------------10-10-10-10-|…
  • Intro:
    
    Riff1 (with distortion)
    E------------------------------|
    B------------------------------|
    G---------5---------5----------| repeat 7 more times
    D--3-3-3--5--3-3-3--5--3/5-5---|
    A--3-3-3--3--3-3-3--3--3/5-5---|
    E--1-1-1-----1-1-1-----1/3-3---|
    
    Then...
    
    E------------------------------|
    B------------------------------|
    G-5-----------5-5-5------------|…
  • Chords Used
    D5  (x577xx)
    C5  (x355xx)
    F5  (133xxx)
    A5  (577xxx)
    
    Intro/Verse
    -----------
    (Keyboard and bass background)
    
    (Rex comes in - palm muted)
    E------------------|
    B-----13------13---|
    G---12--12--12--12-|
    D-10------10-------|
    A------------------|
    E------------------|
    
    I…
  • A  E  Bm 
    
    I want to hold the hand inside you
    I want to take the breath that's true
    I look to you and I see nothing
    I look to you and see the truth
    
    You live your life and you go in shadow
    You'll come apon and you'll go…
Наверх