Аккорды Фліт - Pertebe (Сонечко)

Добавлено: @romashka
Дата добавления: 01 Мая 2018г.
Рейтинг:
0.0
Просмотров: 26
Транспонировать - +
Вступ:
1)---------0----------------0---0-2- }
2)-3---3--------3---3---3----------- } x4
3)---2---2---2----2---2---2---2----- }

   D                  D                   A                A                G                  G 
1)-2/0----------------2/0----------------2/0---------------0-0-0-0-2-2-2-2--2/0----------------2/0----------
2)-----3-3-3-3-3-3-3------3-3-3-3-3-3-3------3-3-3-3-3-3-3----------------------3-3-3-3-3-3-3------3-3-3-3--

          Bm                Bm
1)--------2/0---------------0-0-0-0-2-2-2-2-
2)-3-3-3------3-3-3-3-3-3-3-----------------

Куплет:
D         A       G   G / F# / G / A
Я свіжих квітів накупив,
D       A         G     G    
Свої штани нові попрасував.
D         A       G         G / F# / G / A  D     
Чистенько пику поголив, у парку лавочку "забив",
     A            G        G  
Я тебе на ній весь день чекав.

Приспів:
   D         A  
Я сидів, я стояв,
      Bm         G           D
Я не спав. твій букет давно зів’яв.
      A         Bm          G 
А під ранок зрозумів, що я попав...

Куплет:
D       A           G  G / F# / G / A
А потім бачив я той шик –
D        A         G     G       
Кольє гламурне, дороге манто,
D        A       G      G / F# / G / A  D 
А біля тебе лисий бик і блискучий черевик
       A           G        G  
Пер тебе кудись на чорному авто.

Приспів:
   D         A  
Я сидів, я стояв,
      Bm         G           D
Я не спав. твій букет давно зів’яв.
      A         Bm          G 
А під ранок зрозумів, що я попав...

Програш:
Em     A          D 
Ти мій сон, милий сон,
      G          Em  
Розтоптала, наче слон.
    A       D 
Але я відімстив –
     G         Em 
І на тебе вже забив.
      A           D 
Хай тепер собака зла
      D         Em
А не сонечко, як я,
          A  D
Любить тебе!

   D                  D                   A                A                G                  G 
1)-2/0----------------2/0----------------2/0---------------0-0-0-0-2-2-2-2--2/0----------------2/0----------
2)-----3-3-3-3-3-3-3------3-3-3-3-3-3-3------3-3-3-3-3-3-3----------------------3-3-3-3-3-3-3------3-3-3-3--

          Bm                Bm
1)--------2/0---------------0-0-0-0-2-2-2-2-
2)-3-3-3------3-3-3-3-3-3-3-----------------

Приспів:
   D         A  
Я сидів, я стояв,
      Bm         G           D
Я не спав. твій букет давно зів’яв.
      A         Bm          G 
А під ранок зрозумів, що я попав...

   D         A  
Я сидів, я стояв,
      Bm         G           D
Я не спав. твій букет давно зів’яв.
      A         Bm          G 
А під ранок зрозумів, що я попав...

Кода:
1)---------0----------------0---0-2- }
2)-3---3--------3---3---3----------- } x2
3)---2---2---2----2---2---2---2----- }                     
                                                                           D
1)-2/0----------------2/0----------------2/0---------------0-0-0-0-2-2-2-2-
2)-----3-3-3-3-3-3-3------3-3-3-3-3-3-3------3-3-3-3-3-3-3-----------------

Бій: V v ^ ^ v ^. В програші грається на 2 акорди: Em (V v) A (^ ^ v ^) D (V v ) G (^ ^ v ^). G/F#/G/A граються 
акорди по 1 удару вниз. Можна грати всю пісню на квинтах.
comments powered by Disqus
Наверх