Аккорды «Foo Fighters»

Foo Fighters
Foo Fighters (фу файтерз) — американская альтернативная пост-гранжевая рок-группа, образованная бывшим участником рок-группы Nirvana Дейвом Гролом в 1995 году. Название позаимствовано из слэнга американских лётчиков. Летчики, служившие в послевоенной Германии, рассказывали, что неоднократно наблюдали в воздухе яркие неопознанные объекты. Американцы назвали их “foo fighters” (“foo” - это переиначенное на английский манер французское слово “feu”, что означает “огонь”).=> Огненные истребители… Читать полностью... Foo Fighters (фу файтерз) — американская альтернативная пост-гранжевая рок-группа, образованная бывшим участником рок-группы Nirvana Дейвом Гролом в 1995 году. Название позаимствовано из слэнга американских лётчиков. Летчики, служившие в послевоенной Германии, рассказывали, что неоднократно наблюдали в воздухе яркие неопознанные объекты. Американцы назвали их “foo fighters” (“foo” - это переиначенное на английский манер французское слово “feu”, что означает “огонь”).=> Огненные истребители "Если бы не смерть Кобейна, я думаю, никаких Foo Fighters сейчас бы не было. Я наверняка остался бы тем, кем я был, и по сей день стучал бы на барабанах в Nirvana. Ну, может быть, выпустил бы пару синглов на каком-нибудь независимом лейбле, и все. Мне всегда хотелось быть просто музыкантом из группы Курта", - отвечает обычно Дейв Грол на вопрос о том, что было бы, если бы не трагическая смерть Курта Кобейна в апреле 94-го года. Конечно же, для многих он навсегда останется барабанщиком Nirvana (особенно для тех матерых гранжеров, которые недовольно морщатся от откровенно "попсового" звучания Foo Fighters), поэтому Дейв старался и старается по сей день сделать все возможное, чтобы отвоевать свое место под солнцем и доказать всем свою состоятельность как композитора, вокалиста и лидера группы. Избавляться от ярлыков сложнее всего, однако Грол и его группа выпустили уже 7 альбомов, причем "There Is Nothing Left To Lose" и "Echoes, Silence, Patience and Grace" - добились такого успеха, о котором большинство модерн рок-групп могут только мечтать. Чего только стоит попадание видео к песне "Learn To Fly" в ротацию MTV, что вообще практически нереально для группы, играющей подобную музыку. Дейв родился 14 января 1969 года в Северной Вирджинии. Его отец был флейтистом, а мать пела в вокальной группе. Поэтому не было ничего удивительного в том, что их сын с самого рождения обладал незаурядными музыкальными способностями (например, подобрать какую-либо песню на слух для него не составляло никакого труда), однако Дейв не торопился воспользоваться своим талантом: "Сколько я себя помню, в нашем доме всегда валялась гитара, однако мне никогда не приходило в голову начать на ней играть. Ситуация изменилась, когда мне исполнилось 10 лет. В это время не начать играть на гитаре было невозможно - все просто сходили с ума от "Smoke On The Water". Так что в 11 лет я уже записывал свои песни на игрушечный магнитофон, а на 12-й день рождения родители меня осчастливили - подарили электрогитару". С этих пор Дейв начал играть в школьной группе, которая исполняла хиты The Who и The Rolling Stones. Особым шиком считалось играть в доме престарелых - там люди обычно танцевали. Но вскоре Дейв узнал, что такое панк. В 1982 году его жизнь изменилась благодаря двоюродной сестре, которая была настоящей панк-рокершей. Именно Трейси (так зовут сестру) ввела его в мир альтернативной музыки... "У нее были классные кожаные штаны, и она носила "ирокез". Я как-то гостил у нее во время школьных каникул, и эти чертовы две недели впоследствии изменили всю мою жизнь", - вспоминает Дейв. На протяжении нескольких последующих лет Грол играл в различных командах типа Freak Baby, Mission Impossible , Dain Bramage и Scream, постепенно переквалифицировавшись из гитариста в барабанщика. Тогда же он освоил премудрости звукозаписи (под руководством старого друга Барретта Джонса) и начал сочинять собственные песни. Кстати, одно из его ранних творений - "Marigold" - было реализовано на одном из би-сайдов группы Nirvana, в которой, кстати, Грол оказался благодаря Баззу Осборну из Melvins. Далее последовали переезд в Сиэтл и запись культового альбома "Nevermind". После смерти Курта Кобейна, лидера легендарной группы Nirvana, барабанщик Дейв Грол (Dave Grohl) не оставил творчество и создал группу Foo Fighters, в которую сначала входил гитарист Pat Smear, выступавший с Нирваной на последних концертах. Как ни странно, но группа Foo Fighters образовалась лишь после выхода дебютного альбома с аналогичным названием. Произошло это в 1995 году, когда Дейв Грол решил все-таки дать ряд концертов, посвященных релизу сольного материала. Дело в том, что диск "Foo Fighters" от и до был записан Дейвом практически самостоятельно. Но концертную программу в одиночку не потянуть, поэтому Грол приступил к формированию новой группы. В первый состав Foo Fighters, помимо Грола, вошли: гитарист Germs и когда-то второй "концертный" гитарист Nirvana Пэт Смир, бас-гитарист Нэйт Мендел и барабанщик Уильям Голдсмит. За такой героический поступок музыкальные критики окрестили Дейва "представителем эпохи возрождения альтернативного рока".Часть материала диска "Foo Fighters" была написана Дейвом еще в бытность барабанщиком Nirvana - в свободное от основной работы время он умудрялся записывать песни в вирджинской студии Джонса. Над остальными композициями Грол трудился в Сиэтле уже после смерти Кобейна. Причем запись возобновилась лишь спустя несколько месяцев, поскольку пребывавший в шоке парень вообще подумывал о прекращении музыкальной карьеры. Первые два миньона и полный альбом Foo Fighters сразу приковывают внимание публики. Через некоторое время дебютный диск "Foo Fighters" становиться мультиплатиновым и получает престижную награду "Best New Artist". Не заставили себя долго ждать и следующие релизы группы - миньон "I'll stick around" и концертник "For All The Cows". В 1996 году группа завоевывает приз MTV за лучший видеоклип. В августе этого же года после окончания турне в поддержку альбома "Foo Fighters", группа записывает саундтрек к фильму Паула Шредера (Paul Schrader) "Touch". В октябре 1996 года команда возвращается в студию Баррэтта Джонса (Barrett Jones) с которым Грол и Co. записывали свой первый альбом. В конце года свет увидел миньон "Big Me", спустя несколько месяцев, в 1997 году группа выпускает еще один EP, получивший название "Monkey Wrench". Вторым диском Foo Fighters стала пластинка "The Colour & The Shape" - работа, названная критиками "плодом творчества действительно группы". "Я шутил, что на обложке альбома изображена больничная койка, а тексты песен напоминают записи в карточке моего терапевта. Когда люди спрашивали о том, что я делал последние полгода, я гордо отвечал им, чтобы они прочли лирику композиций". В промоушене последнего альбома большую роль сыграл продюсер Джил Нортон (Gil Norton), который организовал профессиональную "раскрутку". На композицию "Monkey Wrench" был отснят видеоклип, директором которого был сам Дэйв. Вот здесь-то и начались проблемы с составом - во время записи альбома коллектив Грола покинул Голдсмит, по слухам, не выдержавший постоянных посягательств шефа на его рабочее место в студии. Сказалась-таки привычка Дейва к барабанной установке. В период с момента релиза "The Colour & The Shape" и до ноября 1999 года в Foo Fighters появился новый барабанщик по имени Тэйлор Хоукинс (работавший в сопровождающем составе Аланис Мориссетт) и ушел Пэт Смир, на замену которому Грол привел старого приятеля Франца Сталя. Однако и Сталь задержался в составе ненадолго. В ноябре 1999 года вышел третий лонгплей FOO FIGHTERS - “There Is Nothing Left to Lose”. Если первые два альбома вышли под лейбом Capitol, то новое детище Дэйва Грола издано под маркой RCA. Годы не портят музыкальные коллективы, а опыт - вещь неоценимая. Альбом действительно стоит послушать - и “Learn to Fly”, и “Next Year”, и уж тем более “Ain’t It the Life”. Последняя явно отражает фирменный стиль FOO FIGHTERS - этакий оригинальный гитарный риф с мощной ударной секцией и хрипловатый, несколько приглушенный вокал Грола. Продюсером записи выступил Адам Каспер, работавший в свое время с Nirvana и Soundgarden. 22 октября 2002 года вышел новый альбом Foo Fighters "One by One", хотя этого диска могло и не быть вовсе. Два года молчания, постоянные отлучки лидера команды Дейва Грола в Queens Of The Stone Age - многие уже отчаялись услышать когда-нибудь новые песни Foo Fighters. Кое-кто даже говорил о распаде. Но ошибся. Foo Fighters выпустили не просто новый альбом, а одну из крутейших рок-пластинок года. Чувствуется, что QOTSA здорово изменили взгляды Грола на музыку. Не задолго до выхода "One by One" Дейв говорил, что диск получился жестким и грохочущим из-за обилия экспериментов со звуком. На самом же деле главным экспериментом оказались более мягкие и и чуть размытые гитары, - в точности как у QOTSA. Песни Foo Fighters, ничуть не потеряв в жесткости и драйве, зазвучали куда мелодичнее и стали гораздо приятнее на слух. Первый же трек альбома,"All My Life", в точности отражает настроение и стиль всей пластинки, - она разная: то тихая, то ревущая, Грол в ней то красиво поет, то орет так, что уши закладывает. И так продолжается все 11 треков - вот вам мощная волна звука в "Low", вот неторопливые гитары в "Disenchanted Lullaby", вот неожиданно замысловатая мелодия "Have It All", вот два притопа, три прихлопа в "Time Like These", вот мягкая акустика в "Halo". Впрочем, несмотря на кажущуюся неровность этого альбома, все песни в нем целиком в стиле Foo Fighters. Даже очень красивая баллада, "Tired Of You" записана так жестко, как только было возможно. Она сыграна без ударных, без зашкаливающих датчиков, но не дает голове расслабиться. И это просто фантастика. После выхода "One by One" вряд ли кто-нибудь заговорит о распаде группы. Помимо полноценных альбомов, каждый из которых перевалил рубеж платиновых, на счету Foo Fighters несколько саундтреков, самый известный - к ленте “Секретные материалы”. Так что не правы те, кто говорит, что альтернативный рок умер вместе с Кобейном, он просто перешел на новый виток своего развития. Последний альбом Foo Fighters - "Echoes, Silence, Patience & Grace". В нем пожалуй, их главный хит сравнимый с "All My Life" - "The Pretender". Полный драйв и глубокие тексты буквально пропитали этот альбом, уже ставший живой классикой. После триумфа в 2008 году на стадионе Уэмбли(на котором к Foo Fighters присоединялись Джимми Пейдж и Джон Пол Джонс из Led Zeppelin) Дэйв Грол объявил о том,что группа уходит в безвременный отпуск,добавив что не собирается всю жизнь заниматься Foo Fighters, и что пришло время заняться собственной семьей и сайд-проектами. Состав Нынешний: Дейв Грол — Вокал, Гитара Тейлор Хокинс — Ударные, бэк-вокал Нейт Мендел — Бас-гитара Крис Шифлетт — Гитара, бэк-вокал Пэт Смир — Гитара, Бэк-Вокал (1995—1997,2006 -- настоящее время) Бывшие участники: Уильям Голдсмит — Барабаны, Перкуссия (1995—1997) Франц Сталь — Гитара, Бэк-Вокал (1995—1997) Официальный сайт группы Скрыть...
Популярные аккорды Foo Fighters:
алфавиту | просмотрам | случайно
  • INTRO
    
    (see bottom for chords)
    
         B5             C#5           B5
    E|-------------------------------------------------------|
    B|-------------------------------------------------------|
    G|--4--4-4-4-4-4-4/6-6-6-6-6-6-64-4-4-4-4-4-4-4-4-4-4--|
    D|--4--4-4-4-4-4-4/6-6-6-6-6-6-64-4-4-4-4-4-4-4-4-4-4--|
    A|--2--2-2-2-2-2-2/4-4-4-4-4-4-42-2-2-2-2-2-2-2-2-2-2--|
    E|-------------------------------------------------------|
    
    (A…
  • Intro                           C#5 |x46xxx|   E5 |02xxxx|
    
    Chords played in the backround.  
       E5       C#5         E5      C#5
    e|-0-----0--0---0--------0----0----0--0-----0--------------------------------|
    B|-4/-5--4--0--0--0-0-0--4/-5-4-0---0---0-0-0--------------------------------|
    G|---------------------------------------------------------------------------|
    D|---------------------------------------------------------------------------|
    A|---------------------------------------------------------------------------|
    E|---------------------------------------------------------------------------|…
  • Standard Tunning: EBGDAe
    
    D13 - x54505
    D   - xx0323
    Am  - x02210 use which ever on
    Am7 - x02213/ either Am or Am7 
    C   - x32010
    Em  - 022000 use which ever one
    Em7 - 022033/ either Em or Em7
    
    
    Listen to song for timing and…
  • Tuning: Dropped D
    
      Intro (Played fast with chords played softly over the top)
      
      Dmaj7                             Bsus2
    e|---------------------------------------------------------------------------|
    B|---------------------------------------------------------------------------|
    G|---------------------------------------------------------------------------|
    D|-----11---11-11-----11--11-11-11----11--11-11--11---11---11-11-11----------|
    A|-----9----9--9------9---9--9--9-----9---9--9---9----9----9--9--9--0--------|
    D|-0-0----0------0--0---0---------0-9---9------9----9----9----------0--------|…
  • Drop D Tuning
    
    Intro
    
         PM------------------------------|
    e-|----------------------------------|
    b-|----------------------------------|
    G-|------7-------7-------7-------7---|
    D-|------5-------5-------5-------5---|
    A-|--5-5-5-5-5-5-5-5-5-5-5-5-5-5-5---|
    D-|--5-5-5-5-5-5-5-5-5-5-5-5-5-5-5---|
    
    Verse…
  • Here is the solo:
    
    This comes in at about 2:50. It has a small cresendo and it busts into distortion:
    e|--------------------------------------------------|
    B|--------------------------------------------------|
    G|--4--4--5-5--9--9--10--10-------------------------|
    D|--x--x--x-x--x--x--x---x------5-5-x-5-5-x-5-5-----|
    A|--2--2--3-3--7--7--8---8------5-5-x-5-5-x-5-5-----|
    E|------------------------------3-3-x-3-3-x-3-3-----|
    In…
  • I only know the chorus, sorry about it
                    B  Em
     G------------------------------------------------------|
     U------------------------------------------------------|
     I------------444----------444--------------------------|…
  • 1/4  1/4
    Intro                                       )   )
    -------------------------------------------/---/----|
    ------------------------------------------/---/-----|
    -----------------------------------------6---7------|…
  • *DISCO: B-SIDE del single BIG ME
    
    *AFINACIУN: Normal (E-A-D-G-B-e).
    
    INTRO/VERSOS:
        G#5   F#5 B5
    e|------------------------||
    B|------------------------||
    G|----------------444444--||
    D|--666666-444444-444444--||
    A|--666666-444444-222222--||
    E|--444444-222222---------||
    
    
    ESTRIBILLOS:…
  • Main Riffs:
    E-5---5---5---5-5---5---5-5---5---5---7-7---7---7-7---7---7---7-|
    B-7--7-7-7-7--6--6-6-5-6--5--5-5-5-5--7--7-7-7-7--8--8-8-8-8--7-|
    G-7-7---7---7-7---7---7---6-6---6---6-7---7---7---9-9---9---9-7-|
    D---------------------------------------------------------------|
    A---------------------------------------------------------------|
    D---------------------------------------------------------------|
    
    E-7---7---7-5---5---5---|
    B--7-7-7-7--6--6-6-6-6--|
    G---7---7---7-7---7---7-|
    D-----------------------|
    A-----------------------|
    D-----------------------|
    
    Riff…
  • 0:12                           x8-singing after 2
    G||-------------------------------------------------------------------------------------|
    D||-------------------------------------------------------------------------------------|
    A||-------------------------------------------------------------------------------------|
    E||--5------2------4--57------5---------------------------------------------------------|…
  • (Drop D Tuning)
    
    
    Intro
    e||--8-8-8--8-8----8-8----8-8----------|----------0------------------0-------||
    B||--7-7-7--8-7----7-8----7-8----------|----------0------------------0-------||
    G||--7-7-7--7-7----7-7----7-7----------|-3-3--3------3-3-3--1-1--1-----------||
    D||--0-0-0--0-0----0-0----0-0----------|-4-4--4------4-4-4--2-2--2-----------||
    A||------------------------------------|-4-4--4------4-4-4--2-2--2-----------||
    D||------------------------------------|-------------------------------------||
    
    
    Verse…
  • dropped D tuning 
    intro/verse: 
    e|--------------------66666666-88888888---- 
    B|-----------------------------------------
    G|--------------------33333333-55555555---- 
    D|----------------------------------------- 
    A|-----------------------------------------…
  • Chords used:
       EADGBe
    Dm xx0231  or Dm7 : xx0211
    Am x02210  or Am7 : x02010
    Em 022000
    G  355xxx
    A  577xxx
    C  x355xxx
    D  x577xx
    
    Key:
    10b   - Bend note
    13h   - Hammer-on
    12p   - Pull-off
    13/10 - Slide to next note
    10~~~…
  • G           D      C
    I'm in the sky tonight
     G              D       C
    There I can keep by your side
     G              D               C
    Watching the wide world riot
            A7
    I'm hiding out
     C              D…
  • The drum roll thing starts it off and then you play this.
              
              Intro/Chorus:
              (Play the intro without singing)
              e:----------------------------|
              B:----------------------------|…
  • (Normal Tuning)
    
    
    Intro
           G            E          G
    e||-----------------0----0------------0------------------------||
    B||----3---0--------0----0-----3---0--0------------------------||
    G||----3---2--------1----------3---2--------------------2-3-4--||
    D||----x---1---1-------2-------x---1--------------0-1-2--------||
    A||--3-3---2-----2-----2-----3-3---2---------------------------||
    E||--------------------0----------------0-0-3-4-5--------------||
    
    
    Verse…
  • Normal Tuning (e B G D A E) 
    
    Intro and Post-Chorus
    e||-------------------------------------------------||
    B||--2222222222222222-------------------------------||
    G||--2222222222222222----------4-4-6-6-7-7-7-7-7-7--||
    D||--2222222222222222--4-4-7-7-x-x-x-x-x-x-x-x-x-x--||
    A||--0000000000000000--x-x-x-x-2-2-4-4-5-5-5-5-5-5--||
    E||--------------------2-2-5-5----------------------||
    
    Verse
    e||------------------------------------------||
    B||--222-2-22-2-22-2-22----------------------||
    G||--222-2-22-2-22-2-22--333-3-33-3-33-3-33--||
    D||--222-2-22-2-22-2-22--444-4-44-4-44-4-44--||
    A||--000-0-00-0-00-0-00--444-4-44-4-44-4-44--||
    E||----------------------222-2-22-2-22-2-22--||
    
    e||----------------------222-2-22-2-22-2-22--||
    B||----------------------333-3-33-3-33-3-33--||
    G||--444-4-44-4-44-4-44--222-2-22-2-22-2-22--||
    D||--555-5-55-5-55-5-55--000-0-00-0-00-0-00--||
    A||--555-5-55-5-55-5-55----------------------||
    E||--333-3-33-3-33-3-33----------------------||
    
    Chorus
    e||-----------3-33-333-5-55-555-333333---33333333--||
    B||--2-222222-1-11-111-3-33-333-000000-2-11111111--||
    G||--2-222222-2-22-222-4-44-444-000000-2-22222222--||
    D||--2-222222-3-33-333-5-55-555-000000-2-33333333--||
    A||--0-000000-0-00-000-0-00-000-xxxxxx-0-00000000--||
    E||-----------------------------333333-------------||
    
    Bridge
    e||--0-00--0-000-000000-0-00--0-000-020000--||
    B||--2-22--0-000-000000-2-22--0-000-000000--||
    G||--2-22--2-222-222222-2-22--2-222-222222--||
    D||--2-22--2-222-222222-2-22--2-222-222222--||
    A||--0-00--1-111-111111-0-00--1-111-111111--||
    E||--------0-000-000000-------0-000-000000--||
    
    e||--0-00--0-00------------33333333--||
    B||--2-22--0-00------------00000000--||
    G||--2-22--1-11--3-33-3333-00000000--||
    D||--2-22--2-22--4-44-4444-00000000--||
    A||--0-00--2-22--4-44-4444-xxxxxxxx--||
    E||--------0-00--2-22-2222-33333333--||
    
    e||--0-00--0-000-000000-0-00--0-000-020000--||
    B||--2-22--0-000-000000-2-22--0-000-000000--||
    G||--2-22--2-222-222222-2-22--2-222-222222--||
    D||--2-22--2-222-222222-2-22--2-222-222222--||
    A||--0-00--1-111-111111-0-00--1-111-111111--||
    E||--------0-000-000000-------0-000-000000--||
    
    e||-----------33333333--||
    B||-----------00000000--||
    G||--33333333-00000000--||
    D||--44444444-00000000--||
    A||--44444444-xxxxxxxx--||
    E||--22222222-33333333--||
    
    Interlude…
  • TUNING- Drop D tuning
    
           VERSE (Play 3 times after guitar intro)
    G-------------------------------------------------------|
    D-------------------------------------------------------|
    A-------------5-2--2-2--2-2-3-------------3-0--0-0--0-0-|
    D-0--0-0--0-0-----------------3--3-3--3-3---------------|
    
    |------------------------------|…
  • Intro/verse
    e|-------------------------------------------------
    b|-------------------------------------------------
    g|---5555-88888----1111-55555----5555-88888-333333-
    d|77-7777-88888-33-3333-55555-77-7777-88888-555555-
    a|77-7777-66666-33-3333-33333-77-7777-66666-555555-
    E|55-5555-------11-1111-------55-5555-------333333-
    
    
    chorus
    e|--------------
    b|--------------
    g|111111-000000-
    d|333333-222222-
    a|333333-222222-
    E|111111-000000-
    
    
    solo
    e|---------------------------------------------------------------------
    b|---------------------------------------------------------------------
    g|14…
  • Tuning: EADGBE
    
    INTRO PT1 (X2)
        C            C/B         Am            G
    E|----------------------------------------------------------------------------|
    B|---------1------------1------------1------------0---------------------------|
    G|---------0------------0------------2------------0---------------------------|
    D|-----2---2--------0---0--------2---2------------0---------------------------|
    A|--3------3-----2------------0------0--------0-------------------------------|
    E|-----------------------------------------3----------------------------------|…
  • Tuning: 1= d  4= D
            2= B  5= A
            3= G  6= E
    
    VERSE:-
    
    e|-5---------------1----1-------------0----0------------5----5----------1--
    B|-5---------------1----1-------------0----0------------5----5----------1--
    G|-6--------2--x---2----2--2---1---x--1----1---1/6--x---6----6--62--x--2--
    D|-7--x--3--3--x-----------3---2---x-----------2/7--x-----------73--x-----
    A|-7--x--3--3--x-----------3---2---x-----------2/7--x-----------73--x-----
    D|------1--x-----------1---0---x-----------0/5--x-----------51--x-----
    
    e|-1-------------0--0-----------5----5----------1----1-----------0---0-----
    B|-1-------------0--0-----------5----5----------1----1-----------0---0-----
    G|-2--2---1---x--1--1--1/6---x--6----6--62--x--2----2--2--1--x--1---1--1/-
    D|----3---2---x--------2/7---x----------73--x----------3--2--x---------2/-
    A|----3---2---x--------2/7---x----------73--x----------3--2--x---------2/-
    D|----1---0---x--------0/5---x----------51--x----------1--0--x---------0/-
    
    CHORUS:-
    
    e|------5--5----5--5--x--5--x--5----5--5--x--5--5--5----5----5--5--5----5--
    B|------5--5----5--5--x--5--x--5----5--5--x--5--5--5----5----5--5--5----5--
    G|------6--6----6--6--x--7--x--7----7--7--x--6--6--6----6----7--7--7----7--
    D|-7---------------7-----7--x--7----7--7--x--7--7--7----7----7--7--7----7--
    A|-7---------------7-----5--x--5----5--5--x--7--7--7----7----5--5--5----5--
    D|-5---------------5--------x----------------5--5--5----5------------------
    
    e|5--5--5----5----5--5--5----5---4--4--4----4---5--5--5----5---1--1--1----1
    B|5--5--5----5----5--5--5----5---4--4--4----4---5--5--5----5---1--1--1----1
    G|6--6--6----6----7--7--7----7---5--5--5----5---6--6--6----6---2--2--2----2
    D|7--7--7----7----7--7--7----7---6--6--6----6---7--7--7----7---3--3--3----3
    A|7--7--7----7----5--5--5----5---6--6--5----6---7--7--7----7---3--3--3----3
    D|5--5--5----5-------------------4--4--4----4---5--5--5----5---1--1--1----1
    
    e|-0--0--0----0---5--5--5----5---1--1--1----1---0--0--0----0---5--5--5----5
    B|-0--0--0----0---5--5--5----5---1--1--1----1---0--0--0----0---5--5--5----5
    G|-1--1--1----1---6--6--6----6---2--2--2----2---1--1--1----1---6--6--6----6
    D|-2--2--2----2---7--7--7----7---3--3--3----3---2--2--2----2---7--7--7----7
    A|-2--2--2----2---7--7--7----7---3--3--3----3---2--2--2----2---7--7--7----7
    D|-0--0--0----0---5--5--5----5---1--1--1----1---0--0--0----0---5--5--5----5
    
    BRIDGE:-
    
    e|--3--3--3--3--3--3--3--3--3--3--3--3--3--3--3--3--5--5--5---5--8---8-----
    B|--3--3--3--3--3--3--3--3--3--3--3--3--3--3--3--3--5--5--5---5--8---8-----
    G|--4--4--4--4--4--4--4--4--4--4--4--4--4--4--4--4--6--6--6---6--9---9-----
    D|--5--5--5--5--5--5--5--5--5--5--5--5--5--5--5--5--7--7--7---7--10--10----
    A|--5--5--5--5--5--5--5--5--5--5--5--5--5--5--5--5--7--7--7---7--10--10----
    D|--3--3--3--3--3--3--3--3--3--3--3--3--3--3--3--3--5--5--5---5--8---8-----
    
    e|-8---8---8---3--3--3--3--3--3--3--3--1--1--1--1--1--1--1--1--0----5------
    B|-8---8---8---3--3--3--3--3--3--3--3--1--1--1--1--1--1--1--1--0----5------
    G|-9---9---9---4--4--4--4--4--4--4--4--2--2--2--2--2--2--2--2--1----6------
    D|-10--10--10--5--5--5--5--5--5--5--5--3--3--3--3--3--3--3--3--2----7------
    A|-10--10--10--5--5--5--5--5--5--5--5--3--3--3--3--3--3--3--3--2----7------
    D|-8---8---8---3--3--3--3--3--3--3--3--1--1--1--1--1--1--1--1--0----5------
    
    The…
  • Tuning: Drop A tuning (i think)
    
    INTRO - 
    
    e|---------------------------------------------------------------------------|
    B|---------------------------------------------------------------------------|
    G|---------------------------------------------------------------------------|
    D|--3------------------------------------------------------------------------|
    A|---------------------------------------------------------------------------|
    A|----0-0--3-5-5-3-5/10-10-3-5-5-3-5/8-8-6-6-5-3-5-4-4-3-6-6-5-3--X2---------|
    then
    e|---------------------------------------------------------------------------|
    B|---------------------------------------------------------------------------|
    G|---------------------------------------------------------------------------|
    D|---------------------------------------------------------------------------|
    A|------0-0--3-5-5-3-5/10-10-3-5-5-3-5/8-8-6-6-5-3-5-4-4-3-6-6-5-3-----------|
    A|-16/--0-0--3-5-5-3-5/10-10-3-5-5-3-5/8-8-6-6-5-3-5-4-4-3-6-6-5-3--X2-------|
    
    VERSE…
  • Intro
    e||---------------------------||
    B||--8-----7--8-----7--8-7----||
    G||----7---7----7---7------7--||
    D||------5--------5-----------||
    A||---------------------------||
    D||---------------------------||
    
    
    Verse
    (Gtr. 1…
  • Standard tuning.
    
    > (or b)= Bend up (eg 6>7 means bend from fret 6 to fret 7)
    p= Pull off (eg 7p0 means pull off and play the string loose)
    = Slide Down (eg 12 means slide down from the 12th fret)
    
    _____________________________________________________________________________
    
    Intro
    (I…
  • G: 320003
    Am: 002210
    Bm: 224432
    Bbm: 113321
    D: xx0232
    F: 122311
    E: 022100
                            G                      Am
              You know in all of the time that we shared,
              Bm                 Bbm…
  • standard tuning
    
    
    intro/verse: 
       Bm7        G                F        A 
    e|-------------------------------------------------------
    B|------------------------------------------------------- 
    G|-7-7-7-7-7-7-7-7-7-7-7-7-7-7---------------------------…
  • E
    visiting is pretty
    E
    visiting is good
               G                     A    E
    seems that all they ever wanted was a brother
    E
    this can be a secret
    E
    we can keep it good
           G                     A  E
    even all the ever…
  • INTRO:    (C - Am - G - F) x 2
    
           C           Am        G                  F
    When I-talk about it carry on reasons only knew
           C           Am          G                     F
    when I-talk about it every is awful…
  • Call and I'll answer at home in the lost and found.
    
    E-----------------------
    B--2--3--3---2--3--3----
    G--2--2--2---2--2--2----
    D-----------------------
    A-----------------------
    E-----------------------
    
    Say that im much…
  • (Normal Tuning)
    
    
    Riff 1 
    e||---5---|---4---|---5---|---5---|---3---||
    B||---5---|---5---|---7---|---6---|---3---||
    G||---6---|---6---|---7---|---7---|---3---||
    D||---7---|---6---|---7---|---7---|---5---||
    A||---7---|---4---|---5---|---5---|---5---||
    E||---5---|---4---|---5---|---5---|---3---||
    
    
    Riff…
  • (eBGDGC Tuning)
    
    Weenie Beenie could be tuned BGDBBe
    
    
    
    Intro Riff
    e||-------------------||
    b||-------------------||
    g||-------------------||
    d||-------------------||
    g||--10-10-10--0-0-0--||
    c||--10-10-10--0-0-0--||
    
    
    Verse
    e||------------------|-----------------------|-----------------------||
    B||------------------|-----------------------|-----------------------||
    G||------------------|-9-10-10-10-9-10-10-10-|-9-10-10-10-9-10-10-9--||
    D||------------------|-----------------------|-----------------------||
    G||--10-10-10--0-0-0-|-----------------------|-----------------------||
    C||--10-10-10--0-0-0-|-----------------------|-----------------------||
    
    
    Chorus
    e||----------------------------||
    B||----------------------------||
    G||----------------------------||
    D||----------------------------||
    G||--10-10--8-8-10-8-8-8-10-8--||
    C||--10-10--8-8--8-8-8-8--8-8--||
    
    
    Bridge
    e||-------------------------------||
    B||-------------------------------||
    G||-------------------------------||
    D||--------5-------------------3--||
    G||--7-6-5-5-5-6-7-5-4-3-0-3-4-3--||
    C||--7-6-5---5-6-7-5-4-3-0-3-4----||
    
    
    
    
    
    
    
    ____________________________
    Foo…
  • [Verse]
    =======
    Guitar 1:
    E|-------------------------------------------------|
    B|-------------------------------------------------|
    G|-6---6---6---6---6---6---6---6---6---6---6---6---|
    D|-------------------------------------------------|
    A|-------------------------------------------------|
    E|-------------------------------------------------|…
  • (Normal Tuning)
    
    
    Intro
    e||---------------------------2---------------------------2----||
    B||----0-0-0-0-0-0-0-0-0-0-0--3----0-0-0-0-0-0-0-0-0-0-0--3-2--||
    G||--2-4-4-4-4-4-4-4-4-4-3-2--2--2-4-4-4-4-4-4-4-4-4-3-2--2-2--||
    D||---------------------------0---------------------------0-2--||
    A||---------------------------------------------------------0--||
    E||------------------------------------------------------------||
    
    
    Verse
    (Guitar…
  • (Normal Tuning)
    
    
    Intro/Verse
    e||-----------------------------------||
    B||-------------------------------9--||
    G||-----------------------------------||
    D||-----------------------------------||
    A||-----------------------------------||
    E||--2-2-2-2-2-2-2-0---^18-18-18*-----||
    *…
  • INTRO:
    Guitar 1:  (D Dsus D Dsus D Dsus)  F#7   E7
    Guitar 2:  D---------------------------------   F#7   E7
    
    
    VERSE:
    
    D Dsus D Dsus D Dsus
    they knew all along
    
    F#7                     E7
    they're not dumb, they were so wrong
    
    D…
  • This is the intro:
    
    Drop D...
    
    e||-------------------------0-----------2-2--0--0--0-|
    B||-------------------------0-----------3-3--0--0--0-|
    G||---------7-6--------7-6--1-----------2-2--1--1--1-|
    D||--9-9-9------7-7-7-------2------5-5--0-0--2--2--2-|
    A||--9-9-9------7-7-7-------2------5-5--0-0--2--2--2-|
    D||--9-9-9------7-7-7-------2--2-4-5-5--0-0--2--2--2-|
    
    e|-----------------------0-----------2-2-2-2--||
    B|-----------------------0-----------3-3-3-3--||
    G|--------7-6-------7-6--1-----------2-2-2-2--||
    D|-9-9-9------7-7-7------2------5-5--0-0-0-0--||
    A|-9-9-9------7-7-7------2------5-5--0-0-0-0--||
    D|-9-9-9------7-7-7------2--2-4-5-5--0-0-0-0--||…
  • 1st Verse (w/delay)
    e|------------------------------------------|
    B|------------------------------------------|
    G|--4--6----------4--6-------------6-----4--|
    D|--------7-------------6-------6-----6-----|
    A|-----------7------------------------------|
    E|------------------------------------------|…
  • (Normal Tuning)
    
    
    Gtr. 1 plays the upper part while Gtr. 2 plays bottom part.
    
    
    Intro
    e|-0--0-0-0--0--0-0-0--0--0-0-0--0--0-0-0-|
    B|-0--0-0-0--0--0-0-0--0--0-0-0--0--0-0-0-|
    G|-8--8-8-8--8--8-8-8--8--8-8-8--8--8-8-8-|
    D|-9--9-9-9--9--9-9-9--9--9-9-9--9--9-9-9-|
    A|-7--7-7-7--7--7-7-7--7--7-7-7--7--7-7-7-|
    E|-0---------0---------0---------0--------|…
  • Intro:
    
    G||---------------------------|------------------------||
    D||*--------------------------|-----------------------*||
    A||*--------------------------|-----------------------*||
    E||---4h-6--6--6--6--6--4h-6--|--6--6--4----7p-6-------||…
  • Intro
    e|----------------------------------------------|
    B|----------------------------------------------|
    G|----------------------------------------------|
    D|----------------------------------------0-----|
    A|-3-5-5-5-3-5-5-7-----9-7-5--2-0--2------2-2/0-|
    E|----------------------------------------------|
    I'm…
  • intro
    D-------------------------------------------------------------
    A-------------------------------------------------------------
    F-5-5-5-5-5-5-5-5-------5---------5---------5---------5---5---
    C-------------------------------------------------------------
    G-------------------------------------------------------------
    C-----------------0-0-0---0-3-3-3---3-5-5-5---5-3-3-3---3---3-
    
    verse
    D---------------------------------------------
    A---------------------------------------------
    F-------5---------5---------4---------5---5---
    C---------------------------------------------
    G---------------------------------------------
    C-0-0-0---0-3-3-3---3-5-5-5---5-3-3-3---3---3-
    
    D---------------------------------------------
    A---------------------------------------------
    F-------7---------9--------10---------5---5---
    C---------------------------------------------
    G---------------------------------------------
    C-0-0-0---0-3-3-3---3-5-5-5---5-3-3-3---3---3-
    
    chorus…
  • Intro/Pre-Verse:
    
    e:--------------------------------|------------------------------|
    B:--------------------------------|------------------------------|
    G:--------------------------------|------------------------------|
    D:-------9---7---9---7---7-9---7--|-0-0---9---7---9---7---7-9-7--|
    A:-9-9----------------------------|------------------------------|
    E:--------------------------------|------------------------------|
    
    e:-------------------------|------------|
    B:-------------------------|------------|
    G:-6---9~~~--6---9---6-----|------9~~~--|
    D:-------------------------|-9----------|
    A:-------------------------|------------|
    E:-------------------------|------------|…
  • e|----------------------------------------------------------------|
    B|7-7-5-5-4-4-----5-5-4-4-----4-4-5-5-5-5-5-5-5-5-5-5-5-5---------|
    G|4-4-4-4-4-4-6-6-4-4-4-4-6-6-4-4-6-6-4-4-----4-4-6-6-4-4-6b7-6-4-|
    D|----------------------------------------6-6---------------------|
    A|----------------------------------------------------------------|
    E|----------------------------------------------------------------|
    
    e|----------------------------------------------------------------------|
    B|7-7-5-5-4-4-----5-5-4-4-----4-4-5-5-5-5-5-5-5-5-5-5-5-5-------5-------|
    G|4-4-4-4-4-4-6-6-4-4-4-4-6-6-4-4-6-6-4-4-----4-4-6-6-4-4-6b7-6-4-------|
    D|----------------------------------------6-6---------------------------|
    A|----------------------------------------------------------------------|
    E|----------------------------------------------------------------------|…
  • Tuning: Standard (e B G D A E)
    
    
    Intro(w/delay) 
    
    e||------3---|
    B||----3-----|
    G||--0-------| 
    D||----------|
    A||----------|
    E||----------|
    
    Intro (part two)
    e||--3----3----3----3-|
    B||--3----3----3----3-|
    G||--0----0----0----0-|
    D||-------------------|
    A||-------------------|
    E||-------------------|
    
    Intro…
  • Tuning: Standard
    
    Intro
    Guitar 1
    e|----------------------------------------------------------------|
    B|----------------------------------------------------------------|
    G|---7------------------------------------------------------------|
    D|---7------------------------------------7-----------------------|
    A|---5------------------------------------7-----------------------|
    E|----------------------------------------5-----------------------|
    
    Guitar…
  • Intro
    e|-------------------------------------------------------------|
    B|-------------12-------------12-------------12-------------12-|
    G|-11h12p11h12----11h12p11h12----11h12p11h12----11h12p11h12----|
    D|-------------------------------------------------------------|
    A|-------------------------------------------------------------|
    E|-------------------------------------------------------------|
    
    e|-------------------------------------------------------------|
    B|-------------11-------------11-------------11-------------11-|
    G|-11h12p11h12----11h12p11h12----11h12p11h12----11h12p11h12----|
    D|-------------------------------------------------------------|
    A|-------------------------------------------------------------|
    E|-------------------------------------------------------------|
    
    e|-------------------------------------------------------------|
    B|-12-12-12-12-12-12-12-12-12-12-11-11-11-11-11-11-11-11-11-11-|
    G|-12-12-12-12-12-12-12-12-12-12-11-11-11-11-11-11-11-11-11-11-|
    D|-------------------------------------------------------------|
    A|-------------------------------------------------------------|
    E|-------------------------------------------------------------|
    
    
    Verse
    e||-----------------------------||
    B||-----------------------------||
    G||--7/9-x-1211-----7/9-x-76--||
    D||--7/9-x-1211-----7/9-x-76--||
    A||--5/7-x-109------5/7-x-54--||
    E||--5/7---109------5/7---54--||
    
    
    Chorus
    e||----------------------------||
    B||----------------------------||
    G||--7/9-9-9----------5-7-7-7--||
    D||--7/9-9-9--5-7-5---5-7-7-7--||
    A||--5/7-7-7--5-7-5---3-5-5-5--||
    E||-----------3-5-3------------||
    
    
    Bridge
    e||-----------------------------||
    B||-----------------------------||
    G||-----------------------------||
    D||-----------------------------||
    A||------------------5----------||
    E||--0-0-0-3-5-5-5-5---7-6-5-3--||
    
    
    Solo
    e||----------------7-7-6-6-----------6h7p6h7-------6h7p6h7--||
    B||--(7)-8--7h8p7h8-------6-6-6h7p6h7-------6h7p6h7---------||
    G||---------------------------------------------------------||
    A||---------------------------------------------------------||
    E||---------------------------------------------------------||…
  • Intro and Verse:
      (Guitar 1)
    e:---------------------------|
    B:---------------------------|
    G:---8---8---8---8-8---8---8-|
    D:---8---8---8---8-8---8---8-|
    A:-5/6---6---6---6-6---6---6-|
    E:---------------------------|
    
    
    Later…
  • chords used:
    E [022100]
    G#[466444]
    A [002220]
    F#[244222]
    
    intro: E, followed by:
    E-|0-2-4-0-5-4-2-0-2-4-|
    B-|0-------------------|
    G-|1-------------------|
    D-|2-------------------|
    A-|2-------------------|
    E-|0-------------------|
    
    E…
  • Intro/Verse - ритм, палм мъютинг (приглушение рукой)
    
    E-----------------------------------|
    B-----------------------------------|
    G-----------------------------------|
    D-6-6-6--6-6-6--6-6-6--6-6-6--6-6-6-|
    A-6-6-6--6-6-6--6-6-6--6-6-6--6-6-6-|
    E-4-4-4--4-4-4--4-4-4--4-4-4--4-4-4-|
    
    ´All…
  • Tuning (D-A-D-G-B-E)
    
    Intro x2
    
    E---------------------
    B---------------------
    G---------------------
    D--7-7-5-9-7-5-7-9~---
    A--7-7-5-9-7-5-7-9~---
    E--7-7-5-9-7-5-7-9~---
    
    
    E-0-0-0-0-0-0----
    B-3-3-3-3-3-3----
    G-2-2-2-2-2-2----
    D-0-0-0-0-0-0----
    A-0-0-0-0-0-0----
    D-0-0-0-0-0-0----
    
    
    After…
  • Intro:
    
    D-----------------------------------------------------|
    A-------3-------------------------------5-------------|
    E-----------------------------------------------------|
    
    
    D-----------------------------14-12-------------|
    A------------------7-7-7-5-7--------14-12-------|
    E-----------------------------------------15-12-|
    
    Verse:
    D----------------------------5-5-5-|
    A--7-7-7-5-7-7-7-7-7-7-7-5-7-------|…
  • Tunings:
    (Gtr. 1) - dAGDAD
    (Gtr. 2) - eBGDAE
    
    
    Intro and Verse riff
    
    (Gtr. 1) - w/Chorus
    
    
    Main riff
    d||--------------------------||
    A||--------------------------||
    G||--------------------------||
    D||--0-0-0-0--0-0-0-0-0---0--||
    A||--5-4-2-0--5-4-0-2-0------||
    D||---------------------0----||
    
    Other…
  • STANDARD TUNING
    
    INTRO
    E|-------------------------------------|
    B|----------------------------------7--|
    G|----6------------------3--3----8--7--|
    D|-8--8---6-8-9--4---4-6----x----9--9--|
    A|-9--8--(7)-----6--(5)-----4----9--9--|
    E|-9--6--(7)-----6--(5)-----4----7--7--|
    (let…
  • Intro.
                                  2x                            
    G||---------------------------||---------------------------|
    D||*-------------------------*||---------------------------|
    A||*--2/4--------------------*||--2/4---------2/4----------|
    E||-------5----5----5--0--2---||------5----5------5--0--2--|…
  • INTRO
    
    C (tremelo bend down) 
    
    e-0---------------3---------3-3-3-3-3--5b-5b-5b-5b-3-----3-----
    b---1--------1/5-----5--3-----------------------------5--------
    g-----0--------------------------------------------------------
    d-------2------------------------------------------------------
    a---------3----------------------------------------------------
    E--------------------------------------------------------------
    
    C
    Dear…
  • Intro - Lead Guitar
    
    E---------------------------------------------- R
    B---------------------------------------------- E
    G--8--6--4--6--7--4-------8--6--4--6--7--4----- P x2
    D--9--8--6--8--9--5--5----9--8--6--8--9--4--4--…
  • (Normal Tuning)
    
    
    Intro
       (Gtr. 1) (w/Talk Box)
    e||------------------|---------------------|---------------------||
    B||------------------|---------------------|---------------------||
    G||------------------|---------------------|---------------------||
    D||--6-6-4-2-4-2-4/6-|-6-6-4-2-4-2-4/6/4/2-|-6-6-4-2-4-2-4/6/4/2-||
    A||------------------|---------------------|---------------------||
    E||------------------|---------------------|---------------------||…
  • Intro/verse :  Kind of weird timing
    e|------------2-------------------2-----------------
    b|----------0---0---------------0----0--------------
    g|-------2--------2-----------2--------2------------
    d|--------------------------------------------------
    a|--0-2------------------0-2------------------------
    E|--------------------------------------------------…
  • * e -----------------------------------                           *
    * B -3333-55-6666-44--3333-55-6666-44--                           *
    * G -2222-55-5555-33--2222-55-5555-33--                           *
    * D -----------------------------------…
  • INTRO
    E--------0----------3--------5---|
    B--------0----------3--------5---|
    G--------1----------4--------6---|
    D------2------------5--------7---|
    A----2------------5--------7-----|
    E--0------------3--------5-------|
    
    E--------0----------5--------3---|
    B--------0----------5--------3---|
    G--------1----------6--------4---|
    D------2------------7--------5---|
    A----2------------7--------5-----|
    E--0------------5--------3-------|
    
    E--------0----------5--------7---|
    B--------0----------5--------7---|
    G--------1----------6--------8---|
    D------2------------7--------9---|
    A----2------------7--------9-----|
    E--0------------5--------7-------|
    
    E--------0----------7--------5---0-------|
    B--------0----------7--------5---0-------|
    G--------1----------8--------6---0-------|
    D------2------------9--------7---2-------|
    A----2------------9--------7-----2-------|
    E--0------------7--------5-------0-------|
    
    
    PREVERSE
    
    E-------------------------------------------|
    B-------------------------------------------|
    G-------5-5-5-5-------7-7-7-7b--------------|
    D--2-2--5-5-5-5--5-5--7-7-7-7b--------------|
    A--2-2--3-3-3-3--5-5--5-5-5-5---------------|
    E--0-0-----------3-3------------------------|
    
    E-------------------------------------------|
    B-------------------------------------------|
    G-------5-5-5-5-----------------------------|
    D--2-2--5-5-5-5--5-5-5-5-5-5----------------|
    A--2-2--3-3-3-3--5-5-5-5-5-5----------------|
    E--0-0-----------3-3-3-3-3-3----------------|
    
    
    CHORUS
    
    E----------------------------------------------------|
    B----------------------------------------------------|
    G-------5-5-5-5-------7-7-7-7b-----------------------|…
Наверх