Аккорды «For Amusement Only»

Популярные аккорды For Amusement Only:
алфавиту | просмотрам | случайно
  • Intro - Guitar 1
    e|-------------------------------------------------|
    B|-------------------------------------------------|
    G|-5----------------------5----5-------------------|
    D|-5-----3-----5-555555---5----5----3-3-3--5-5-5---|
    A|-5-----3-----5-555555---3----3----3-3-3--5-5-5---|
    E|-------1-----3-333333-------------1-1-1--3-3-3---|…
  • Intro:
    
    ------------------------------------------------------------------------
    ------------------------------------------------------------------------
    ------------------------------------------------------------------------
    --3--------------------------------------3---7---8---10-----------------
    --3----let…
  • E--55555555--22222222------------------------------------------------------ 
    A---------------------55555555--77777777-----------------------------------
    D--------------------------------------------------------------------------…
  • intro-G-1
    e|-----------------------------------------------
    B|-----------------------------------------------
    G|-4--4--4--4--4--4--4--4--4--4--4--4--4--4--4--4
    D|-X--X--X--X--X--X--X--X--X--X--X--X--X--X--X--X
    A|-2--2--2--2--2--2--2--2--2--2--2--2--2--2--2--2
    E|-----------------------------------------------
    
    intro-G-2
    e|-----------------------------------------------
    B|-----------------------------------------------
    G|------------------------11-11-11-11-11-11-11-11
    D|-------------------------X--X--X--X--X--X--X--X
    A|-------------------------9--9--9--9--9--9--9--9
    E|-----------------------------------------------
    
    verse…
  • + - Mute
    ~ - Let Ring
    
    e|-------------------------------------------|
    B|-------------------------------------------|
    G|-------------------------------------------|
    D|-9-9-----9-9-----996-----------------------|
    A|-9-9-----9-9-----996---…
  • Intro
    |-----------|
    |-----------|
    |-----------|
    |--7--3--5--|
    |--7--3--5--|
    |--5--1--3--|
    
     Verse
    |--------------|
    |--------------|
    |--------------|
    |-----3--5-----|
    |--7--0--3--5--|
    |--5--------3--|
    
     Chorus
    |--------------------|
    |--------------------|
    |-----5-----5--------|
    |--7--5--3--5--5--2--|
    |--7--3--3--3--5--2--|
    |--5-----1-----3--0--|…
  • + - mute
     x - scratch
       
       |--------------------|
       |--------------------|
       |-77xx---------------|
       |-77xx77xx55xx5577x--|
       |-55xx77xx55xx5577x--|(x2)
       |-----55xx33xx3355x--|
    
       |-----------------|
       |-----------------|…
  • G|---------------------------------------------------------------------------|
    D|---------------------------------------------------------------------------|
    A|-2-2-------------2-2-------------------------------------------------------|
    E|-----2-2-0-0-2-2-----2-2-0-0-2-2-------------------------------------------|
    
    G|---------------------------------------------------------------------------|
    D|---------------------------------------------------------------------------|
    A|-2-1-----------------------------------------------------------------------|
    E|-----4-2-------------------------------------------------------------------|
    
    G|---------------------------------------------------------------------------|
    D|---------------------------------------------------------------------------|
    A|-2-2-2-2-1-1-1-1-----------------------------------------------------------|
    E|-----------------4-4-4-4-2-2-2-2-0-0-0-0-0-0-0-0-2-2-2-2-2-2-2-2-----------|x2
    
    G|---------------------------------------------------------------------------|
    D|---------------------------------------------------------------------------|
    A|---------------------------------2-2-2-2-2-2-2-2---------------------------|
    E|-4-4-4-4-4-4-4-4-0-0-0-0-0-0-0-0-----------------2-2-2-2-2-2-2-2-----------|x2
    
    that's…
Наверх