Аккорды «Frank Zappa»

Frank Zappa
Фрэнк Винсент Заппа (англ. Frank Vincent Zappa, 21 декабря 1940 — 4 декабря 1993) — легендарный американский композитор, гитарист, певец, кинорежиссёр и сатирик. Был руководителем рок-группы The Mothers of Invention. Лауреат премии «Грэмми». За свою 33-летнюю музыкальную карьеру Заппа показал себя одним из самых плодовитых композиторов своей эпохи, выпустив более шестидесяти альбомов, почти все из которых содержат неповторяющиеся композиции. Кроме того он был известным электрогитаристом, мультиинструменталистом,… Читать полностью... Фрэнк Винсент Заппа (англ. Frank Vincent Zappa, 21 декабря 1940 — 4 декабря 1993) — легендарный американский композитор, гитарист, певец, кинорежиссёр и сатирик. Был руководителем рок-группы The Mothers of Invention. Лауреат премии «Грэмми». За свою 33-летнюю музыкальную карьеру Заппа показал себя одним из самых плодовитых композиторов своей эпохи, выпустив более шестидесяти альбомов, почти все из которых содержат неповторяющиеся композиции. Кроме того он был известным электрогитаристом, мультиинструменталистом, талантливым звукоинженером и продюсером, обладающим энциклопедическими знаниями студийных технологий, самостоятельно спродюсировавшим почти все свои записи сделанные после дебюта в 1966 году. Работал во многих жанрах и писал музыку для рок-групп, синтезаторов, джазовых ансамблей, симфонических оркестров. Работы Фрэнка Заппы хоть и нечасто, но всё же имели коммерческий успех (альбом 1974 года «Apostrophe» стал даже золотым). Биография Фрэнк Заппа родился в Балтиморе (штат Мэриленд, США) 21 декабря 1940 года в семье выходцев из Европы. Его отец родился в Сицилии и имел греческое и ливанское происхождение, а мать была на три четверти итальянcкого и на одну французского происхождения. В юности интересовался различной музыкой, в том числе работами композиторов-авангардистов Эдгара Вареза и Игоря Стравинского, современным джазом, чёрным Ритм-энд-блюзом. Был увлечён аранжировками и написанием музыки, мечтал быть композитором. В 1959 году переехал в Лос-Анджелес, где жил большую часть своей жизни. Там он начал карьеру проффесионального музыканта, написав несколько песен и саундтреков. В 1960-х и 1970-х годах Фрэнк Заппа был лидером группы The Mothers of Invention, с которой выпустил ряд альбомов под названиями «Frank Zappa and the Mothers of Inventions» и «Frank Zappa and the Mothers». Началось с того, что в 1964 году Заппа присоединился к группе «The Soul Giants» в качестве гитариста, и быстро стал её лидером. Коллектив сменил название на «The Mothers». Группа получила контракт с лэйблом Verve Records, и по настоянию лейбла сменила название на «The Mothers of Inventions», т.к. слово Mother было короткой формой ругательного Motherfucker. Дебютным альбомом коллектива (и первым официальным собственным релизом в длинной дискографии Заппы) стал «Freak Out!» 1966 года. К концу 1960-х группа распалась, а Заппа, после записи сольного материала, собрал в 1970 году новый состав «The Mothers». В 1969 году Фрэнк Заппа спродюсировал выдающийся альбом Captain Beefheart «Trout Mask Replica» и дебютный альбом Элиса Купера. В 1971 году принял участие в концертном выступлени Джона Леннона и Йоко Оно, фрагмент которого был выпущен на альбоме Леннона «Some Time In New York City». Все 1970-е и 1980-е годы Заппа занимался активной творческой деятельностью. Среди альбомов этого времени можно выделить двойной альбом «Sheik Yerbouti» (1979, записан в 1977-1978 годах) с хитом «Bobby Brown», и тройной альбом «Joe’s Garage» (1979). В интервью Мэтту Грейнингу 1992 года Заппа сказал, что вряд ли какой-то альбом будет продаваться лучше «Sheik Yerbouti», по той причине, что песня «Bobby Brown» регулярно попадает в чарты[1]. В 1980 году в группе Фрэнка Заппы играл молодой гитарист-виртуоз Стив Вай, сделавший впоследствии сольную карьеру. В 1980-х Заппа больше интересовался политикой, и даже не исключал возможности баллотироваться на пост президента США. Тогда он посещал СССР, встерчался со Стасом Наминым и Альфредом Шниттке.[2] Памятник Заппе в Вильнюсе. В 1991 году ему поставили диагноз: рак. После этого Заппа тратил практически всю свою творческую энергию на работы для синклавира и орекстров в стиле модерн. В 1992 году выступил в качестве дирижёра Ensemble Modern, исполнявшего его произведения. Эти записи были выпущена на альбоме «The Yellow Shark». В 1993 году закончил большой труд для синклавира, начатый в 1980-х — альбом «Civilization, Phaze III». Умер 4 декабря 1993 года от рака простаты в возрасте 52 лет, похоронен в Калифорнии. Музыка Фрэнка Заппы в настоящее время (2007) активно исполняется живьём как трибьют-группами, так и коллективом под названием Zappa Plays Zappa, которым управляет его сын Двизил при участии бывших музыкантов Фрэнка Заппы Прочие факты * У Фрэнка Заппа четверо детей: дочь Мун (Moon Unit Zappa, 1967), сын Двизил (Dweezil Zappa) сын Ахмет (Ahmet Emuukha Rodan Zappa, 1974), дочь Дива (Diva Zappa, 1979). Двизил и Ахмет — музыканты, создали рок-группу «Z». Мун стала актрисой, а в 1982 году пела на хит-сингле отца «Valley girl». * В 1971 году, во время концерта «Frank Zappa & The Mothers» в Монтрё (Швейцария) начался пожар, при котором сгорело и здание казино, в котором проходил концерт, и аппаратура группы. Предположительно, один из швейцарских фэнов выпустил на концерте сигнальную ракету, что и стало причиной пожара. Это событие примечательно тем, что оно увековечено в хите «Smoke on the Water» находящейся в тот день в том же городе группы Deep Purple, текст которого был навеян этим пожаром и его дымом, стелющимся по воде Женевского озера. Deep Purple приехали тогда в Монтрё для записи нового альбома («Machine Head», выпущен в 1972 году) на мобильной студии, и включили в него свеженаписанную песню, ставшую одним из самых узнаваемых хитов в истории рок-музыки. Цитаты * Фрэнк Заппа — один из тех, кому приписывается авторство фразы «Говорить о музыке - все равно что танцевать об архитектуре». [3][4]. * «Большая часть рок-журнализма — это люди не умеющие писать, которые берут интервью у тех, кто не умеет говорить, для тех кто не умеет читать» (в оригинале: Most rock journalism is people who can’t write interviewing people who can’t talk for people who can’t read.) Дискография * 1966 Freak Out! * 1967 Absolutely Free * 1968 We’re Only in It for the Money * 1968 Lumpy Gravy * 1968 Cruising With Ruben & The Jets * 1969 Uncle Meat * 1969 Mothermania * 1969 Hot Rats * 1970 Burnt Weeny Sandwich * 1970 Weasels Ripped My Flesh * 1970 Chunga’s Revenge * 1971 Fillmore East, June 1971 * 1971 200 Motels * 1972 Just Another Band From LA * 1972 Waka/Jawaka * 1972 The Grand Wazoo * 1973 Over-N Скрыть...
Популярные аккорды Frank Zappa:
алфавиту | просмотрам | случайно
  • Theme A:
    
    E -----------------------------------------------0----2-|
    B ---8-7-------------10--------3-2----------1----3--|
    G --9---7----------11---------4---2--------0----2---| x2
    D -9-----9-------11-----------------4-----4-----------0----|
    A…
  • RIFF 1: main funk-type RIFF
    
    G -------------8-9-|-----------------
    D -----------------|-----------------
    A -----9-----------|---12------------
    E -----------------|-----------12----
    
    
    RIFF 2: mostly while Devil's talking
    
    G…
  • 4/4     104 bpm
    
    Intro
              Bm
    G:-----|------4----------4---4-|-----4---4-------|------------|
    D:-4-2-|.---4---4------4---4---|---4---4----4-2-.|------------|
    A:-----|.-2-------2--2---------|-2--------------.|-repeat-4x--|
    E:-----|-----------------------|-----------------|------------|
    
    
    
    Head…
  • Spoken:
    G
    The first word in the song is "discorporate"
    Eb
    It means 'to leave your body'
    
    Sung:
    VERSE 1:
    F Gm
    Discorporate and come with me
    F Cm
    Shifting, drifting, cloudless, starless
    Ab Db Eb Gm F F Eb
    Velvet valleys and…
  • *=time signature change
      in next bar
    
    
    A section (basic riff)                                      (not 10th time)
         (x10)                                                            V    *
      ||---------------------------------------------------------------------||…
  • Main Riff
    G-7-7----------------
    D-----9-7---0-0---7-9
    A---------7-----7----
    E--------------------
    
    Other Riff
    (for this riff, you can play either version below...)
    G---------- G----------
    D-0-0------ or D-0-0------
    A-----3-4-5…
  • C G // D A
    
    HEY! DO YOU KNOW WHAT YOU ARE?
    YOUR AN ASSHOLE, AN ASSHOLE
    A CGDA
    SOME OF YOU MIGHT NOT AGREE
    A CGDA
    CAUSE YOU PROBABLY LIKES A LOT OF MISERY
    A D
    BUT THINK A WHILE AND YOU WILL SEE
    Bm
    BROKEN HEART ARE FOR ASSHOLE
    BROKEN…
  • Riff 1:
    E|---------------------------------------------------------------------|
    B|-----5--7---5------------------------5--7-----5----------------------|
    G|--6-------6--- 6p4-----4-6-4-----6--------6-----6p4------4--6--------|
    D|---------------------7---------------------------------7--------7--4-|
    A|---------------------------------------------------------------------|
    E|---------------------------------------------------------------------|
    
    Play…
  • F                       Eb
    Some take the bible for what it's worth
            Bb maj7                              F
    When it says that the meek shall inherit the earth
            F
    Well, I heard that some sheik…
  • Intro Chords: C(major with added notes) Arpeggios on piano
    VERSE 1:
    C Em/B Am
    Now believe me when I tell you that my song is really true
    Dm Em Fm G
    I want everyone to listen and believe
    C Em/B Am
    It's about some little people…
  • F#m E
    THEY DON'T DO NO GOOD
    E D
    THEY NEVER BE WORKIN
    D F#m E
    WHEN THEY OUGHTA SHOULD
    E C#m
    THEY WASTE YOUR TIME
    D Bm
    THERE WASTIN MINE
    G#m
    CALIFORNIA GOT THE MOST OF THEM
    F#m
    BOY THEY GOT A HOST OF THEM
    
    [CHORUS]
    E A B
    SWEAR…
  • --------------0--------|--6---6---|--------------0--------|--/7--⁄5----------|
    -----------4-----4-----|--7---7---|-----------4-----4-----|--/8--⁄6----------|
    --------6-----------6--|--6---6---|--------6-----------6--|--/7--⁄5----------|
    -----6-----------------|--6---6---|-----6-----------------|------------------|
    --0--------------------|--6---6---|--0--------------------|------------------|
    -----------------------|----------|-----------------------|------------------|
    
    --------------0--------|--6---6---|-------------2-1-4-2-1-------|------------|
    -----------4-----4-----|--7---7---|---------2-4-----------4-2---|---6--6--6--|
    --------6-----------6--|--6---6---|---1-3-4---------------------|---6--6--6--|
    -----6-----------------|--6---6---|-1---------------------------|---6--6--6--|
    --0--------------------|--6---6---|---------------------------5-|---5--5--5--|
    -----------------------|----------|-----------------------------|------------|
    
    (w/chorus)…
  • Intro
    
    (^) Slide Up  () Slide Down  (h) Hammer On  (p) Pull Off  (b) Bend
    
    E----------------------5--5--5----|
    B----------------------5--5--5----|
    G----------------------6--6--6----|
    D----------------------7--7--7----|
    A--------7--7---9--7---7--7--7----|
    E---7h9-------9--------5--5--5----|
    
    E----------------------7--7--5----|
    B----------------------7--7--5----|
    G----------------------8--8--6----|
    D----------------------9--9--7----|
    A--------7--7---9--7---9--9--7----|
    E---7h9-------9--------7--7--5----|
    
    E----------------------5--5--5----|
    B----------------------5--5--5----|
    G----------------------6--6--6----|
    D----------------------7--7--7----|
    A--------7--7---9--7---7--7--7----|
    E---7h9-------9--------5--5--5----|
    
    E----------------------2---------------------------|
    B----------------------2---------------------------|
    G----------------------2---------------------------|
    D----------------------4---------------------------|
    A--------7--7---9--7---4---------9^11--11--11--9---|
    E---7h9-------9--------2---------------------------|
    
    *…
  • E--12---12---10---10---9---9--|---12---12---10---10---9--|
    B-----------------------------|--------------------------|
    G--12---12---11---11---9---9--|---12---12---11---11---9--|
    D-----------------------------|--------------------------|
    A-----------------------------|--------------------------|
    E-----------------------------|--------------------------|
    
    E-----------------------------|-----------------------------------------|
    B-----------------------------|---------------------------------6-------|
    G--7h9--9--7-7---6-x-6--4h6p4-|---9-9-9--7---6h7p6--7---7-7-7------7--9-|
    D-----------------------------|-----------------------------------------|
    A-----------------------------|-----------------------------------------|
    E-----------------------------|-----------------------------------------|
    
    E-----------------------------|-----------------------------------------|
    B-----------------------------|-----------------------------------------|
    G---------7-7-7h9-------------|-----------------------------------------|
    D--9---9----------------------|----------------------------2------------|
    A----9---------------7⁄-------|-----------0--3--5---5-2-5---------------|
    E-----------------------------|--0--0--3--------------------------------|
    
    E-----------------------------|-----------------------|
    B--12--10--8------------------|-----------------------|
    G--------------9--7h9--9------|--9--7--7h9p7----------|
    D-----------------------------|-----------------9--7--|
    A-----------------------------|-----------------------|
    E-----------------------------|-----------------------|
    
    E-----------------------------|--7---7---10p9p7-------------------------|
    B-----------------------------|-------------------10-10-10/12-----------|
    G-----------------------------|--7-----------------------------------7--|
    D---7h9p7---------------------|-----------------------------------------|
    A-----------10----------------|---------------------------------10⁄-----|
    E--------------10---10/12-----|-----------------------------------------|
    
    E--7--7--10p9p7----------9--12-10-9-|---------9--9--10---9-9h10p10------|
    B----------------12-12--------------|-----12------------------------12--|
    G-----------------------------------|--9--------------------------------|
    D-----------------------------------|-----------------------------------|
    A-----------------------------------|-----------------------------------|
    E-----------------------------------|-----------------------------------|
    
    E--9--9h10p9-------9-9h10p9---------|--9--10--9h10p9------9-10--9h10p9----|
    B-------------12--------------12----|-----------------12---------------12-|
    G-----------------------------------|-------------------------------------|
    D-----------------------------------|-------------------------------------|
    A-----------------------------------|-------------------------------------|
    E-----------------------------------|-------------------------------------|
    
    E--------------------------------------------|
    B-12p10-----10------7-8-10-8------7-8-8------|
    G--------11-----9--------------9--------9-6--|
    D--------------------------------------------|
    A--------------------------------------------|
    E--------------------------------------------|
    
    E-----------------------------------|--------------------------------------|
    B-----------------------------------|--7p5-----5-----5---5-5---7p5---5--5--|
    G---------7----------------/7-7-7-7-|-------7----4h7---4-----7-----7---4---|
    D-----7h9------------7--9-----------|--------------------------------------|
    A--9----------9---9-----------------|--------------------------------------|
    E-----------------------------------|--------------------------------------|
    
    E------------------------------------------|
    B--7p5-----5----------5---------5--------5-|
    G-------7-----4----7-----4---7----7-7-7----|
    D------------------------------------------|
    A------------------------------------------|
    E------------------------------------------|
    
    E----------12-14-12---------------10-----------------|
    B---10h12-------------12-12h14--12------10h12-10-----|
    G----------------------------------------------------|
    D----------------------------------------------------|
    A----------------------------------------------------|
    E----------------------------------------------------|
    
    E--10--------------------15--14-------10-------------------|
    B------8h10--8------/12----------/12-----10----------------|
    G---------------10--------------------------12--9-------9--|
    D-------------------------------------------------12-12----|
    A----------------------------------------------------------|
    E----------------------------------------------------------|
    
    E-------9-----------------------10-------------------------|
    B--/12-----12--9----------10-12----12-10-------------------|
    G-----------------12-9-12----------------12-9--------9-----|
    D----------------------------------------------12-12-------|
    A----------------------------------------------------------|
    E----------------------------------------------------------|
    
    E----------------------------------------------------------|
    B----------------------------------------------------------|
    G----------------------------------------------------------|
    D--9h11-12-12----------------------------------------------|
    A------------------5-6-7---7p5------5-------------5/7------|
    E--------------5h7---------------7-----7---5---7-----------|
    
    E----------------------------------|-------------------------------------|
    B----------------------------------|-------------------------------------|
    G--------------------------9-9-7-9-|-9-7-9--9-7-9--9-7-9--9-7-9--9-7-9---|
    D--7-5-7-7--7-5-5-------9----------|-------------------------------------|
    A-----------------5--7-------------|-------------------------------------|
    E----------------------------------|-------------------------------------|
    
    E----------------------------------------------------|
    B--/10--8-------------------8-10------8--------------|
    G-----------/9-9-7-9-7-9-7--------9------9-7-9-7-9---|
    D----------------------------------------------------|
    A----------------------------------------------------|
    E----------------------------------------------------|
    
    E----------------------------------------|---5---------------------------|
    B--10p8-----10--10/12--10--8p5-----8-5---|-8---8--5--5h8-5--5--8-8p5-----|
    G--------9----------------------7------7-|----------------------------7--|
    D----------------------------------------|-------------------------------|
    A----------------------------------------|-------------------------------|
    E----------------------------------------|-------------------------------|
    
    E------------3--5--3-----------------------5--3---------|
    B-----5---------------3h5p3----5-----5----------5p3h5---|
    G--7------4-----------------------4---------------------|
    D-------------------------------------------------------|
    A-------------------------------------------------------|
    E-------------------------------------------------------|
    
    D…
  • F D#M C#
    CATHOLIC GIRLS, WITH A TINY LITTLE MUSTACHE
    F# D#m C#
    CATHOLIC GIRLS, DO YOU KNOW HOW THEY GO
    F# D#m C#
    CATHOLIC GIRLS, IN THE RECTORY BASEMENT
    B
    FATHER RILEYS'S A FAIRY
    E C#
    BUT IT DON'T BOTHER MARY
    
    F# D#m C#
    CATHOLIC…
  • 4/4
    Gtr I
    |----------------------3----------------------|
    S S S S S S S S S S S S S S S S S S S S S S S S
    |-------------------------------------------------|
    |-------------------------------------------------|
    |-------------------------------------------------|
    |-------------------------------------------------|
    |-5-5-5---5-5-5---5-5-5---5-5-5---5-5-5---5-5-5---|
    |-------------------------------------------------|
    
    
    |----------------------3----------------------|
    S…
  • E----------------------------------------------------------------7---8---12--|
    B----------------------5-5-7---8---------------------8-7---10-10---8---9-----|
    G------5-5-4---5-7-6-4-------7---8-7----10-10-9-7-10-----9-1-----------------|
    D--7-5-------7-----------------------10--------------------------------------|
    A----------------------------------------------------------------------------|
    E----------------------------------------------------------------------------|
    
    
    E---------------------------------------------------------------|
    B--------10-8----------12-----------10-8----------10-8----------|
    G--9-7-9------7---9-------12-9-7-9-------7-9-7-9----------------|
    D---------------7---10------------------------------------------|
    A---------------------------------------------------------------|
    E---------------------------------------------------------------|
    
    E--------------------------------------------------------------------------|
    B--9-11------------------------------------------11-------13-------16------|
    G-------12-10----12-10-9------8---------13-12-11-------------13-15---------|
    D-------------10---------10-9---8-11-10-------------13-12------------------|
    A--------------------------------------------------------------------------|
    E--------------------------------------------------------------------------|
    
    E--------------------13----------------------------------------------------|
    B--13-15-13-15-16-15----16-15-13-------------------------------------------|
    G--------------------------------15----------------------10----------------|
    D-----------------------------------15-10-12-10-12-13-12----13-12-10-------|
    A--------------------------------------------------------------------13-8--|
    E--------------------------------------------------------------------------|
    
    E------------------------------------------------------------------------|
    B------------------------------------------------------------------------|
    G------------------------------------------------------------------------|
    D--------9-7-----------11----------7-----------------9-7-----------------|
    A--9-7-9------7---9-------12-9-7-9---10-7-9-7-7-9-10-----10-10-9-7-------|
    E---------------7---10---------------------------------------------10----|
    
    E-----------------------------------------------------|
    B---------------------------------------------------7-|
    G----5---------------6-----5------------------7-------|
    D--8---7-5-0-7-5-4---------------8-7-6-9--------7-8---|
    A------------------5---6-----6-5---------10-9---------|
    E-----------------------------------------------------|
    
    E-------------------------9-8--------------------------------8--|
    B--10-8---8------------11-----9-8----------------------11-------|
    G-------7---9-------11------------10-9-------9----9-10----12----|
    D-------------10-11--------------------10------12---------------|
    A-----------------------------------------10--------------------|
    E---------------------------------------------------------------|
    
    E----------7-----------7----------------------------10-9----12-14------------|
    B--9-7-7-9---7-9-7-7-9---9-10-9-7----------------10------12-------14-12------|
    G---------------------------------9-7-6-6-7----9-----------------------------|
    D--------------------------------------------9-------------------------------|
    A----------------------------------------------------------------------------|
    E----------------------------------------------------------------------------|
    
    E----------------------|
    B----------------------|
    G-------7-6-9----------|
    D-------------9--------|
    A---9-7----------------|
    E----------------------|
    
    E-----------------10---------------10---------------10---------------10---|
    B--12-12-10-10-12------12-10-10-12------12-10-10-12------12-10-10-12------|
    G--------------------9----------------9----------------9----------------9-|
    D-------------------------------------------------------------------------|
    A-------------------------------------------------------------------------|
    E-------------------------------------------------------------------------|
    
    E--10-9---------------------------------------------------------14-----------|
    B-------12-10-------------------10------------------14----15-------15--------|
    G-------------12-11-11-12-9---9----12-11-9-------------14----16--------------|
    D---------------------------9--------------12-11-----------------------------|
    A------------------------------------------------12--------------------------|
    E----------------------------------------------------------------------------|
    
    E--12----15----------------------------------------------------------6-------|
    B-----15----12---------------------------------------------------8-6---------|
    G--------------14-------12--------------8-7-------------8-7----7-------------|
    D-----------------14-12---------------8-----8-6-5-----8-----10---------------|
    A--------------------------14-12-10-8---------------8------------------------|
    E-------------------------------------------------8--------------------------|
    
    E--------8------13-11-9-8------------------------------------------------------|
    B--9-8-9----11------------11-9-8-----------------------------------------------|
    G--------------------------------10-8------------------------------------------|
    D-------------------------------------11-10-8--------------10-8----------------|
    A---------------------------------------------11-10-8-----------11-10-8--------|
    E-----------------------------------------------------11-9--------------11-9-8-|…
  • E----------------------------------------------------|
    B---12----10------------------12----10---------------|
    G------11----9--11---------------11----9-------------|
    D------------------12---9-----------------11--9------|…
  • -3-----------------1--5-|
    ----4-----------3-------|
    -------3--0--3----------|
    ------------------------|
    ------------------------|
    ------------------------|
    
    -0-----0--5--9--8--5-----0--------------0--3--7--9-------------|
    ----2-----------------6-----3--1-----1-----------------7-----4-|
    ----------------------------------2-----------------8-----6----|
    ---------------------------------------------------------------|
    ---------------------------------------------------------------|
    ---------------------------------------------------------------|
    
    -------0--11-9-----------------------1--5--3-------------------------|
    -0--1-----------9-----0-----------------------4--3-------------------|
    -------------------7-----3--3--2--3-----------------2--3--3--2-------|
    ----------------------------------------------------------------4----|
    -------------------------------------------------------------------1-|
    ---------------------------------------------------------------------|
    
    ----------1--------------1--5--3-----------------------------1--2--1----|
    -------------1--------------------4--3--------------1--3--4-----------3-|
    ----------------3--2--3-----------------2--0--2--3----------------------|
    ----0--1----------------------------------------------------------------|
    ------------------------------------------------------------------------|
    -3----------------------------------------------------------------------|
    
    ----------3--1-----------1-----------6--9-------------------------------|
    -2--1-----------------3-----1--0--3--------9-----------8----------------|
    -------1--------------------------------------8-----------7-------------|
    ----------------4--1-----------------------------8-----------7----------|
    ----------------------------------------------------8-----------7-----2-|
    -------------------------------------------------------------------2----|
    
    -------------------------3--0-----------6--4-------------------------|
    -------0--1--0-----0--3--------------2--------4--3--0--1--0-----0--3-|
    ----2-----------2--------------2--3--------------------------2-------|
    -3-------------------------------------------------------------------|
    ---------------------------------------------------------------------|
    ---------------------------------------------------------------------|…
  • E---||-----------------|-----------------------------|------------------
    B---||-----------------|--------7--------------------|--------5---------
    G---||--7h8h9--7p5-----|--------7-----7h8h9--7p5-----|--------5--7------
    D---||--------------7--|--5--7--7-----------------7--|--5--7--5---------
    A---||-----------------|-----------------------------|------------------
    E---||-----------------|-----------------------------|------------------
    
    
    2x…
  • C
    Hey there people I'm Bobby Brown
    
    Am
    They say I'm the cutest boy in town
    
    Dm7
    My car is fast, my teeth are shiney
    
    G
    I tell all the girls they can kiss my hiney
    
    Here I am at a famous school
    I'm dressing sharp and I'm…
  • A         D                 E
    MAYBE YOU THOUGHT I WAS THE PACKARD
                  C#m    B
    GOOSE
           A      D
    OR THE RONALD MCDONALD OF THE
    E                     C#m   B
    NOUVEAU-ABSTRUSE
              A…
  • Intro Chords
    ||---------------|---------|-----------------|-----------|-
    ||-2-5-5-2-7-5---|(5)------|-2-5-5-2-7-5---0-|(0)--2-----|-
    ||-2-5-5-2-7-5---|(5)------|-2-5-5-2-7-5---0-|(0)--2-----|-
    ||-2-5-5-2-7-5---|(5)------|-2-5-5-2-7-5---0-|(0)--2-----|-
    ||---------------|---------|-----------------|-----------|-
    ||---------------|---------|-----------------|-----------|-
    
    
    
    ---------------|------------|-----------------|-----------------||
    2-5-5-2-7-4----|(4)---------|-2-5-5-2-7-5---0-|(0)--2-----------||
    2-5-5-2-7-4----|(4)---------|-2-5-5-2-7-5---0-|(0)--2-----------||
    2-5-5-2-7-4----|(4)---------|-2-5-5-2-7-5---0-|(0)--2-----------||
    ---------------|------------|-----------------|-----------------||
    ---------------|------------|-----------------|-----------------||
    
    
    Bridge
    ||-------------|-----------------|-4-5-7-9---11---|-7-----------------||
    ||-------6-9---|-5---------------|-4-5-7-9---12---|-8---8-----8-------||
    ||-5-6-8-------|---4---4---6-----|-4-6-8-9---11---|-7---7-----7-------||
    ||-------------|-----------------|----------------|-----9-----9-------||
    ||-------------|-----------------|----------------|-------------------||
    ||-------------|-----------------|----------------|-------------------||
    
    
    Vocal…
  • A             Bm
    I HAVE BEEN IN YOU , BABY
    A
    AND YOU , HAVE BEEN IN ME
    A                                     Bm
    AND WE, HAVE BEEN, SO INTIMATELY ENTWINED
    D        Dm
    AND IT SURE WAS FINE
    A        Bm
    I HAVE BEEN…
  • Em * Em7 Fmaj9 CsusD DsusE EsusF# DsusE
    Mama! Mama! Some - one said they made some noise
    
    CsusD Cmaj9b5 F Em *
    the cops have shot some girls and boys.
    
    C6/9 Am9 DsusE Fmaj9 C6/9 Am9
    You'll sit home and drink all night they…
  • Intro : 8 maten A
    
    A7sus                                    A7
    Don't know much about dancin'
    A7sus                                    A7
    That's why I got this song
    A7sus                         D
    One of my legs is…
  • G|------------------------|-------------------|--------------------
    D|4--------------------7--|-------------------|-----------------7--
    A|4-----------------------|-----5/7-------7---|--------------------
    E|---14⁄⁄⁄⁄⁄⁄3-----5-5----|---3-------0-0-----|-----8⁄⁄⁄3-----5-5--
    
    |------------------|
    |------------------|
    |-----5/7-------7--|
    |---3-------0-0----|
    
    
    G|------------------|---------------------|------------------
    D|------3-----------|---------------------|------3-----------
    A|-----------3-3-3--|-----------------3⁄⁄-|-----------3-3-3--
    E|--1-1-------------|-3-3-3----6----6-----|--1-1-------------
    
    |---------------------|------------------|---------------------|
    |-------------------3-|------3-----------|---------------------|
    |-----------------5---|-----------3-3-3--|-----------------3⁄⁄-|
    |-3-3-3----6----6-----|--1-1-------------|-3-3-3----6----6-----|
    
    "Like,…
  • /  -  slide up
      -  slide down
    
    
    Intro:
    
    E-------------0-+----------0----+
    B--------0------+--------0------+
    G------6--------+------6--------+
    D----0----------+----0----------+
    A---------------+---------------+
    E--7------------+--7------------+
    
    
    Body:
    
    E---------------+---------------+---------------+---------------+
    B---------------+---------------+---------------+---------------+
    G------6---6----+------6---6----+------4---4----+------4---4----+
    D----0---0---0--+----0---0---0--+----0---0---0--+----0---0---0--+
    A---------------+---------------+---------------+---------------+
    E--7------------+--7------------+--4------------+--4------------+
    
    
    E---------------+---------------+---------------+---------------+
    B---------------+---------------+---------------+---------------+
    G------6---6----+------6---6----+------4---4----+------4---4----+
    D----0---0---0--+----0---0---0--+----0---0---0--+----0---0---0--+
    A---------------+---------------+---------------+---------------+
    E--7------------+--7------------+--4------------+--4------------+…
  • Intro(Both guitars): Cadd9 Bbadd9 x2
    
    Riff 1(Both guitars):
    Played along to "What's there to live for...".
    E|----------------------------------------------
    B|-7--7--10-8--7---10--9--7---7---7--7--10-8--7-
    G|--------------------------9-------------------
    D|----------------------------------------------
    A|----------------------------------------------
    E|----------------------------------------------
    
    -----------12------10----------14---9-10-12-------|
    -10--9-7---------------12-8-----------------12-10-|
    ---------9------------------11--------------------|
    --------------------------------------------------|
    --------------------------------------------------|
    --------------------------------------------------|
    
    Riff…
  • Riff 1:
    E---3---------------------|
    A---------35--------------|
    D--------------3--5--3----|
    G-------------------------|
    
    Repeat 4 times then play:
    
    Riff 2
    E------------------------|
    A---3--------------------|
    D----------35------------|
    G----------------3--5--3-|
    
    Repeat…
  • G
    A year ago today
    Em
    Was when you went away
    C
    But now you come back knocking on my door
    D
    And you say you're back to stay, but I say
    
    
    [Chorus 1]
    G Em C D
    Go cry on somebody else's shoulder
    G Em
    I'm somewhat wiser now
    C…
  • Main Swifty Tune :
    -------------------
    
      (pretty fast !)
    
    E---------------------------------------9-----------------|
    B-----7h8-8p7-8p7-8--7h8-8p7-8p7-8-8/10---10--8--7--8p7---|
    G-------------------------------------------------------9-|
    D---------------------------------------------------------|
    A---------------------------------------------------------|
    E---------------------------------------------------------|
    
    E---------------------------------------9-----12----------|
    B-----7h8-8p7-8p7-8--7h8-8p7-8p7-8-8/10---10--------------|
    G---------------------------------------------------------|
    D---------------------------------------------------------|
    A---------------------------------------------------------|
    E---------------------------------------------------------|
    
    
    Repeat…
  • E|-----------------------------------------------------------------------------|
    B|-2----------------------------------4-----2--------------------------------4-|
    G|-----2------------------------4---------------2------------------------4-----|
    D|--------2-----------------4-----------------------2----------------4---------|
    A|---------------------2------------------------------------------2------------|
    E|------------3---0-------------------------------------3---0------------------|
    
    E|----------------------------------------------------------------------------|
    B|--14br---14---12---------------14brbr---14---12--------------------------12-|
    G|----------------------14---13-------------------------14---13---13---14-----|
    D|----------------------------------------------------------------------------|
    A|----------------------------------------------------------------------------|
    E|----------------------------------------------------------------------------|…
  • Dm	Dm/C	            G7/B  G7/Bb
    Whoa, are we moving too slow? 
    Gm                  Bb 	Gm         Bb
    Have you seen us, 	Uncle Remus?
    F  			     C7	 
    We look pretty sharp in these clothes (yes, we do)
    Dm			     G7	
    Unless…
  • Chord Intro:
    
               Am                      AmM7                     Am7
     4|---|---|---|---|---|  4|---|---|---|---|---|  4|---|---|---|---|---|
      |   |   |   |   |   |   |   |   |   |   |   |   |   |   |   |…
  • 3X
    D G F D F G D#
    -2-2-2---3---1---2---------------!!------------!
    -3-3-3---3---1---3-----10---12---!!-8----------!
    -2-2-2---4---2---2-----10---12---!!-8----------!
    -0-0-0---5---3---0-----10---12---!!-8----------!
    -----------------------8----10---!!-6----------!
    ---------------------------------!!------------!
    
    (Note:…
  • G|--------------------------------------12-11-9-11-11-9-11-9-7-9-7---------|
    D|------------5-7-7/9-7-7---5-7/9-7----------------------------------------|
    A|-7-7-7-7-7-9-----------7-9--------5-3---------------------------7-9------|
    E|-------------------------------------------------------------------------|
    
    G|-------------------------------------------------------------------------|
    D|-----------------5----5-------------------------------------5-7/9-7------|
    A|-0-2-3-2-0-0--5-7--5-7--7-5-5/3-5-5-5-----------0-2-0-0--7-9--------5-3--|
    E|--------------------------------------0-0-0-2-3--------------------------|
    
    G|-12-11-9-11-11-9-11-9-7-9-7--------------------4-2-0--2-0----0-----------|
    D|----------------------------------------------------2----2-0--2-0--------|
    A|---------------------------7/9-7--0-2-3-2-0-0--------------------0-3-0---|
    E|-------------------------------------------------------------------------|
    
    G|-------------------------------------------------12-----------------14---|
    D|--------7-7-9-9-7-9-7-9-12-9-14-11-11-------12-14--14-12-------14-16--16-|
    A|-7-7-7-7-------------------------------12-14------------14-14-16---------|
    E|-------------------------------------------------------------------------|
    
    G|----------------------------------------12-12-10-10-8-8-4-4-6-6----------|
    D|-14---------------------------5-2-7-4-4------------------------7-7-9-9---|
    A|---16--0-0-0-0-5-5-7-7-5-7-5-7-------------------------------------------|
    E|-------------------------------------------------------------------------|
    
    G|---------------------------
    D|---------------------------
    A|--7---7---7---0------------
    E|---------------------------…
  • E|-----------------------------------------------------------------------
    B|-----------------------------------------------------------------------
    G|--------5-5-------9⁄7-----------5-5-------9⁄7--------------------------
    D|--------5-5-------9⁄7-----------5-5-------9⁄7--------------------------
    A|-0-0-0--3-3--3-0--7⁄5----0-0-0--3-3--3-0--7⁄5--------------------------
    E|-----------------------------------------------------------------------
    
    Verses:
    fast…
  • Intro:
    
    G# F# (bis) (repeat at the beginning of every single phrase of the verses)
    
    Verse 1
    G# F#
    You know your mama and your daddy
    G# F#
    Saying I'm no good for you
    G# F#
    They call me dirty from the alley
    G# F#
    'Till I don't…
  • hard to follow
    
    -|-------------------|----|----------------|---|-----------|------------------
    -|-------------------|----|----------------|---|-----------|------------------
    -|-------------------|-x4-|----------------|---|------9-8-6|------------------
    -|-------------------|----|----------------|-x2|-----------|------------------
    -|------7--6---------|----|-----------12-11|---|--7-6------|-x2---------------
    -|--9-----------0-7-0|----|-9-7-5--2-------|---|9----------|------------------
    B…
  • Intro/main riff
    
    E/---------8-5------|
    B/------------8-----|
    G/----5-7-5----7-5--|
    D/-7-7------------7-|
    A/------------------|
    E/------------------|
    
    
    Standin on the porch of the lido hotel Part
    
    E/------------------------------------------------------------------|
    B/-5-5--5--5--5--5-5--5--5--5--5-5-5--5--5-5-5--5--5-5-5--5-5-5-5-5-|
    G/-5-5--5--5--5--5-5--5--5--5--5-5-5--5--5-5-5--5--5-5-5--5-5-5-2-2-|
    D/------------------------------------------------------------------|
    A/------------------------------------------------------------------|
    E/------------------------------------------------------------------|
    
    Solo
    
    E/-
    B/-
    G/-
    D/-
    A/-
    E/-
    
    E/------------------------------------------------|
    B/------------------------------------------------|
    G/-7h8p7p5h7h8p7p5-5-5-7-7-7h8p7p5h7h8p7-7-5------|
    D/----------------7-------------------------7p5---|
    A/---------------------------------------------p7-|
    E/------------------------------------------------|
    
    E/----------------------------------5-|
    B/---------------------------5---5-5--|
    G/-7h8p7p5h7h8p7p5-5----------7b------|
    D/----------------7-5-5-7-7-7---------|
    A/------------------------------------|
    E/------------------------------------|
    
    E/---------------------------------------------------------------|
    B/-12h15-12-15-12-12h15p12--12-12h15p12--15--15--12h15p12--15-12-|
    G/------------------------14-----------14--14--14--------14------|
    D/---------------------------------------------------------------|
    A/---------------------------------------------------------------|
    E/---------------------------------------------------------------|
    
    E/----------------------------------------------------|
    B/-15h17--15~-15h17---12h15p12-12h15p12--12h15--------|
    G/------16-----------------------------14-----14p12---|
    D/-------------------------------------------------14-|
    A/----------------------------------------------------|
    E/----------------------------------------------------|
    
    E/------------------------------------|
    B/---5-8-5--5-8-5--5-8-5--5-8-5-------|
    G/-7b-----7b-----7b-----7b------7br-5-|
    D/------------------------------------|
    A/------------------------------------|
    E/------------------------------------|
    
    E/---------------------------------|
    B/-5-8p5-5-------------------------|
    G/------7-7p5----------------------|
    D/-----------7p5-------------------|
    A/--------------7p5-------------3--|
    E/-----------------7p5-3-5-5-0-5-5-|
    
    E/----------------------------------------------|
    B/---------/5---7-------12----------------------|
    G/-----------7-7-9--9-12--12-11-9-11------------|
    D/-/7-7-7-7-------------------------11-12-12-14-|
    A/----------------------------------------------|
    E/----------------------------------------------|
    
    E/------------------------------------------------|
    B/-----12----------12-------------12---------12---|
    G/---12--12------12--12------11-12--14-----12--12-|
    D/-14----------14----------14------------14-------|
    A/------------------------------------------------|
    E/------------------------------------------------|
    
    E/-----------------------------------------------------------|
    B/-----12-------12-------------------------------------------|
    G/---12--12---12--14-11h12⁄10h12⁄7h9-------------------------|
    D/-14-------14----------------------12h14⁄11h12⁄10h12p10⁄7h9-|
    A/-----------------------------------------------------------|
    E/-----------------------------------------------------------|
    
    E/-------------------------------------------------|
    B/-------------------------------------------------|
    G/-------------------------------------------------|
    D/-5-5h7-7-7-7-5h7-5h7-5h7p5---5h7-7-7-7-7-6-5-----|
    A/7-7-------------7---7-------7---------------7-6~-|
    E/-------------------------------------------------|
    
    E/---------------------------------------------------------|
    B/----------------------------------------------5h8p5------|
    G/----------------------------5--5--5--5--5h7--5-----7p5-5-|
    D/----5-6-7-6-5-----5-6-7-6-5--7--7--7--7-----7---------7--|
    A/-6-7---------7-6-7---------7-----------------------------|
    E/---------------------------------------------------------|
    
    E/----------------------------------------------------------------------|
    B/-5-5-5-5-5-7-5--5-7-5-5-5-5-5-7-5--5-5-5-5-5-7-5--5-7-5--5-7-5--5-7-5-|
    G/-5-5-5-5-5-7-5--5-7-5-5-5-5-5-7-5--5-5-5-5-5-7-5---------5-7-5--------|
    D/---------------7------------------7--------------7------7------7------|
    A/----------------------------------------------------------------------|
    E/----------------------------------------------------------------------|…
  • --6-------------------------------------|
    ----9-7----9-7------7-------------------|
    --------8------8-6----8-6-5--8-6-5------|
    -----------------------------------8----|
    ----------------------------------------|
    ----------------------------------------|
    
    ----------------------------------------|
    --------------------------7----9--------|
    ------------------6---8-----6----8------|
    ------------6---8---6---8---------------|
    ----6---9-6---9-------------------------|
    --8---9---------------------------------|
    
    --6-------------------------------------|
    ----9-7------7---9-7--6---7-6------6----|
    --------8-6----6--------8------8-6---8--|
    ----------------------------------------|
    ----------------------------------------|
    ----------------------------------------|
    
    ---------------------------6-8--11-8----|
    -----------------------7-9--------------|
    --6-8-5-6----------6-8------------------|
    ----------8---6--8----------------------|
    ------------9---------------------------|
    ----------------------------------------|
    
    After…
  • Bb Cm7 F
    Concentration Moon
    Bb Cm7 F
    Over the camp in the valley
    Bb Cm7 F
    Concentration Moon
    Bb Cm7 F
    Wish I was back in the alley
    Gm Cm
    With all of my friends, Still running free:
    Eb F F
    Hair growing out Every hole in me
    
    Tempo…
  • e|---------------------------------------|
    B|---------------------------------------|
    G|---------------------------------------|
    D|---------------------------------------|
    A|-8-7---8-7-7-3-3-5---8-7---8-7-7-3-5---|
    E|-6-5---6-5-5-1-1-3---6-5---6-5-5-1-3---|
    tengo…
  • 3x
    ||-----------------|----------------------------||----------------|-----
    ||--13p12h13-13p12-|-12h13p12-------------------||-13p12h13-13p12-|-----
    ||*----------------|----------14----13---------*||----------------|-----
    ||*----------------|-------------15----13-12---*||----------------|-----
    ||-----------------|----------------------------||----------------|-----
    ||-----------------|----------------------------||----------------|-----
    5/16…
  • C B7 Bb7 A7
    Bow tie daddy dontcha blow your top
    D7 G7 C
    Everything's under control
    C B7 Bb7 A7
    Bow tie daddy dontcha blow your top
    D7 G7
    'Cause you think you're gettin' too old
    C B7 C C7
    Don't try to do no thinkin'
    Caug…
  • [--------------------------------------------------------------------------------------|
    [--------------------------------------------------------------------------------------|
    [-----------8--------------------------------------------------------------------------|
    [---------------10------8--------------------------------------------------------------|
    [----------------------------10--8-----------------------------------------------------|
    [------------------------------------11---8--6--8--------------------------------------|…
  • * = time signature change
    
    1    (x13)                 (x2)
      ||-------------------||-------------------------------------------------||
     4||.-------14----11--.||.-6---6--8--9--8--6----6------------------------.||
     4||.-----------------.||.---7----------------9----9--7--6---------------.||…
Наверх