Аккорды Франкли - Звёзды в метро

Добавлено: @romashka
Дата добавления: 08 Августа 2022г.
Рейтинг:
0.0
Просмотров: 41
Транспонировать - +
Вступление 
  Dm                                 C 
E----------------------------------|-----------------------------------|--- 
B----6---6---6---6---6---6---6---6-|----5---5---5---5---5---5---5---5--|--- 
G----------------------------------|-----------------------------------|--- 
D----------------------------------|-----------------------------------|--- 
A--5---5---5---5---5---5---5---5---|--3---3---3---3---3---3---3---3----|--- 
E----------------------------------|-----------------------------------|--- 
 
  F                                  Bb   
E----5---5---5---5---5---5---5---5-|-----------------------------------|--- 
B----------------------------------|----3---3---3---3---3---3---3---3--|--- 
G----------------------------------|-----------------------------------|--- 
D--3---3---3---3---3---3---3---3---|-----------------------------------|--- 
A----------------------------------|--1---1---1---1---1---1---1---1----|--- 
E----------------------------------|-----------------------------------|--- 
 
Дальше так же перебором:  
 
Dm 
Маленькой точкой 
 
На смятой карте 
C 
Отмечу место куда вернуться 
F 
Если станет невыносимо 
              Bb 
Ну а пока я здесь 
 
И вроде бы как есть силы 
 
Боем: 
         Dm 
Десять станций до кольца 
         C 
Горький кофе по утрам 
            F 
Все так серьезно 
           Bb 
Похоже из метро не летают к звездам 
 
           Dm 
Часовые пояса 
 
Затянуты снова 
               C 
Самолеты, города 
 
«Прощай, до скорого» 
          F 
Снова уезжать 
 
Туда где не ждут 
        Bb 
Ну ты давай, не скучай тут 
 
[Проигрыш]: Dm C F Bb 
 
Перебором: 
Dm 
Холодный ужин 
 
В пустой квартире 
C 
И завтра снова все повторится 
F 
Москва не космос, я не Гагарин 
                  Bb 
И пусть сейчас паршиво 
 
Но мы еще полетаем 
 
Боем: 
        Dm 
Десять станций до кольца 
         C 
Горький кофе по утрам 
            F 
Все так серьезно 
             Bb 
Похоже из метро не летают к звездам 
 
           Dm 
Часовые пояса 
 
Затянуты снова 
               C 
Самолеты, города 
 
«Прощай, до скорого» 
          F 
Снова уезжать 
 
Туда где не ждут 
         Bb 
Ну ты давай, не скучай тут 
 
           Dm 
Часовые пояса 
 
Затянуты снова 
               C 
Самолеты, города 
 
«Прощай, до скорого» 
          F 
Снова уезжать 
 
Туда где не ждут 
         Bb 
Ну ты давай, не скучай тут 
 
Один удар на аккорд: 
          Dm  
И даже среди самых ярких звезд 
          C 
Ничего вокруг не замечая 
             F 
Так хотим услышать пару слов 
Bb 
   Я скучаю 
 
[Проигрыш]: Dm C F Bb 
 
Боем: 
           Dm 
Часовые пояса 
 
Затянуты снова 
               C 
Самолеты, города 
 
«Прощай, до скорого» 
          F 
Снова уезжать 
 
Туда где не ждут 
         Bb 
Ну ты давай, не скучай тут
Наверх