Аккорды Фрэнк? - Скалюсь

Добавлено: @romashka
Дата добавления: 29 Мая 2022г.
Рейтинг:
0.0
Просмотров: 61
Транспонировать - +
E|-------------------------------------------|
B|-------------------------------------------|
G|----3---3---3---3------2---2---2---2-------|
D|--5---5---5---5------0---0---0---0---------|
A|-------------------------------------------|
E|-------------------------------------------|

E|-------------------------------------------|
B|-------------------------------------------|
G|----7---7---7---7------2---2---2---2-------|
D|--8---8---8---8------0---0---0---0---------|
A|-------------------------------------------|
E|-------------------------------------------|
(цикл)

В жизни тысячи дорог, я не знаю ни одну из них и тянет за порог
И благо за окном, а я ненавижу солнце и скалюсь на ворон
Касаниями рук ты надеешься вновь оживить мой безнадежный труп
И клади голову на грудь, я надеюсь, что от этого однажды задохнусь
Надеюсь, что от этого однажды задохнусь
Веселый Петербург посыпает штукатуркой как пеплом голову
И мы бродим без конца по рытвинам его злого жёлтого лица
Улыбками друзей, ушедших навсегда, отражается во мне
Вся сумерочность дней
Я ненавижу радость и скалюсь на людей
Ненавижу радость и скалюсь на людей
Я ненавижу солнце и скалюсь на ворон
Я ненавижу радость и скалюсь на людей
Ненавижу солнце и скалюсь на ворон 
Наверх