Аккорды «Frnkiero AndThe Cellabration»

Frnkiero AndThe Cellabration
frnkiero andthe cellabration. Зная его непостоянство и бесконечную тягу к чему-то новому, никто с уверенностью не может сказать, насколько долговечна данная группа, и будет ли она для Фрэнка основным проектом на большой промежуток времени, но, поскольку многим уже действительно полюбился состав FIATC, данный паблик лишним явно не будет. А теперь давайте познакомимся с составом группы! Фрэнк Айеро - вокал, гитара. Эван Нестор - гитара, бэк-вокал. Эван является шурином Фрэнка, то есть братом его… Читать полностью... frnkiero andthe cellabration. Зная его непостоянство и бесконечную тягу к чему-то новому, никто с уверенностью не может сказать, насколько долговечна данная группа, и будет ли она для Фрэнка основным проектом на большой промежуток времени, но, поскольку многим уже действительно полюбился состав FIATC, данный паблик лишним явно не будет. А теперь давайте познакомимся с составом группы! Фрэнк Айеро - вокал, гитара. Эван Нестор - гитара, бэк-вокал. Эван является шурином Фрэнка, то есть братом его жены, Джамии. Эван также играет в группе Science, информацию о которой вы по желанию можете найти в их твиттере https://twitter.com/ScienceNJ Роб HoCho Хьюз - бас-гитара. Роб играл на гитаре в сайд-проекте Фрэнка LeATHERMOUTH, так что, возможно, его имя кто-то слышит не впервые. Мэтт Олсен - барабаны. К сожалению, какой-либо дополнительной информации пока нет. Эд Аулетта - тур-менеджер, который также прошёл весь путь с My Chem, был с Фрэнком в турах LM и DS. Скрыть...
Популярные аккорды Frnkiero AndThe Cellabration:
алфавиту | просмотрам | случайно
  • Вступление: 
    e|------0--------0--------------3--------3-----------------------------------|
    B|---1-----1--1-----1--3/5---5-----5--5-----5--5-----------------------------|
    G|---------------------------------------------------------------------------|
    D|---------------------------------------------------------------------------|
    A|---------------------------------------------------------------------------|
    E|---------------------------------------------------------------------------|
    
    e|------0--------0---------------3--------5--3-------------------------------|
    B|---1-----1--1-----1---3/5---5-----5--5---------5/6-------------------------|
    G|---------------------------------------------------------------------------|
    D|---------------------------------------------------------------------------|
    A|---------------------------------------------------------------------------|
    E|---------------------------------------------------------------------------|
    
    e|---------------------------------------------------------------------------|
    B|------6-------6--------5--3--------3--------3--------6--------6------6/8---|
    G|---0-----0-0-----0--0--------0--0-----0--0-----0--0-----0--0-----0---------|
    D|---------------------------------------------------------------------------|
    A|---------------------------------------------------------------------------|
    E|---------------------------------------------------------------------------|
    
    e|------------|
    B|---5/3--3---|
    G|------------|
    D|------------|
    A|------------|
    E|------------|
    
    e|----------------0--------0---------------3--------3--------------0---------|
    B|-------3/1---1-----1--1-----1---3/5---5-----5--5-----5--5--3--1-----1--1---|
    G|---0-----------------------------------------------------------------------|
    D|---------------------------------------------------------------------------|
    A|---------------------------------------------------------------------------|
    E|---------------------------------------------------------------------------|
    
    e|---0--------------3--------5--3--------|
    B|------1---3/5--5-----5--5--------5/6---|
    G|---------------------------------------|
    D|---------------------------------------|
    A|---------------------------------------|
    E|---------------------------------------|
    
    e|---------------------------------------------------------------------------|
    B|------6--------6--------5--3--------3--------3--------6--------6------6/8--|
    G|---0-----0--0-----0--0--------0--0-----0--0-----0--0-----0--0-----0--------|
    D|---------------------------------------------------------------------------|
    A|---------------------------------------------------------------------------|
    E|---------------------------------------------------------------------------|
    
    e|-------------------------------|
    B|---6/5---3---3h5p3---1--0--1---|
    G|-------------------------------|
    D|-------------------------------|
    A|-------------------------------|
    E|-------------------------------|…
  • Intro: F# B F#
       
    [Verse 1]
    F#
    I hope somebody misses me when I’m gone 
      B                                 F#
    I hope somebody misses me when I’m gone
    B                         F#                  
    I know it ain’t…
  • Intro: F# F C
    
    Bb         D#            Bb
    Someone I love threw me away [x3]
    C#           C       C#  F    C       Bb
    But I don't mind, no I don't mind at all
    
    Bb
    Some things change but they don't get better…
  • F                         Am Dm
    There’s still a part of me
                                C7 C F Am Dm
    that needs to look the same way
    Am        F
    into your eyes…
    F
    The world may fall apart
    
    F                Am Dm
    I…
  • Verse 1:
    D5
    I hate the things I do
    D5
    And all the shit I put you through
    A5
    It's tragic, I'm static
    D5               
    I am the world's worst
    D5                  A5 
    I am my own worst enemy
    A5
    And I hate me
    
    Pre-Chorus:
    G5…
Наверх