Аккорды Frontier Ruckus - On The Northline

Добавлено: @romashka
Дата добавления: 15 Февраля 2024г.
Рейтинг:
0.0
Просмотров: 68
CAPO: 1st FRET

[Intro]

   Bm            G     D     Em          G     A
E -2-2-0-------------------|-0-2-0-----------------|
B -3-----5-3---3-----------|-0-----3-0-3-----------|
G -4---------4---4-2-0-2---|-0-----------4-2-0-2---|
D -4---------------------0-|-2-------------------2-|
A -2-----------------------|-2---------------------|
E -2-----------------------|-0---------------------|

   Bm            G     D     Em          G     A     G
E -2-2-0-------------------|-0-2-0-----------------|-3-|
B -3-----5-3---3-----------|-0-----3-0-3-----------|-0-|
G -4---------4---4-2-0-2---|-0-----------4-2-0-2---|-0-|
D -4---------------------0-|-2-------------------2-|-0-|
A -2-----------------------|-2---------------------|-2-|
E -2-----------------------|-0---------------------|-3-|

[Verse]
 N.C.      Bm                     A                       Bm      G
Syrup and saccharin don't really factor in when I'm with Catherine
        Bm             A                   Em                   G
On the Northline where 15 years after the high school embraces left
        Bm             A                    Em              G
On the Northline the tectonic molars and incisors start to shift
        Bm            A                        Em                G
On the Northline the municipal golf course is strewn in October leaves
        Bm            A                                 Em                         G
On the Nortjline the scratch-offs and night coughs are stolen by the nursing home thieves
        A               G                      D    A/C# D    E
On the Northline the McDonald's sign ain't the only pen-ding deal

[Pre-Chorus]
        G        E
On the Northliii-ine
        A        F#
On the Northliii-ine

[Chorus]
     Bm                  A
You peel at the way you feel today
       Em              G              A
Till a ten year older version of you kneels in the dark ditch
     G
And shows you what is real

   Bm            G     D     Em          G     A
E -2-2-0-------------------|-0-2-0-----------------|
B -3-----5-3---3-----------|-0-----3-0-3-----------|
G -4---------4---4-2-0-2---|-0-----------4-2-0-2---|
D -4---------------------0-|-2-------------------2-|
A -2-----------------------|-2---------------------|
E -2-----------------------|-0---------------------|

   Bm            G     D     Em          G     A     G
E -2-2-0-------------------|-0-2-0-----------------|-3-|
B -3-----5-3---3-----------|-0-----3-0-3-----------|-0-|
G -4---------4---4-2-0-2---|-0-----------4-2-0-2---|-0-|
D -4---------------------0-|-2-------------------2-|-0-|
A -2-----------------------|-2---------------------|-2-|
E -2-----------------------|-0---------------------|-3-|

[Verse]
N.C.       Bm                       A                          Bm          G
Rotting inheritance, plotting some errands with whatever your parents left
        Bm            A                    Em                  G
On the Northline you have a physique of a youth travel soccer coach
        Bm7            A                             Em                      G
On the Northline your hatchback was matte black and sleek in its nightly approach
        Bm7                 A                           Em                      G
On the Northline there's a sense that the denseness of night is colliding with age
        Bm                  A                      Em                        G
On the Northline there's a sector of town that dissolves in a black hole of beige
        A                      G                         D       A/C# D  E
On the Northline there's this friend of mine who's just dying to make a deal

[Pre-Chorus]
        G        E
On the Northliii-ine
        A        F#
On the Northliii-ine

[Chorus]
     Bm                  A
You peel at the way you feel today
       Em              G
Till a ten year older version of you
 Bm                  A
Peel at the way you feel today
       Em              G
Till a ten year older version of you

 Bm                  A
Peel at the way you feel today
       Em              G
Till a ten year older version of you
 A
Kneels in the dark ditch
     G
And shows you what is real

[Outro]
   Bm            G     D     Em          G     A
E -2-2-0-------------------|-0-2-0-----------------|
B -3-----5-3---3-----------|-0-----3-0-3-----------|
G -4---------4---4-2-0-2---|-0-----------4-2-0-2---|
D -4---------------------0-|-2-------------------2-|
A -2-----------------------|-2---------------------|
E -2-----------------------|-0---------------------|

   Bm            G     D     Em          G     A     G
E -2-2-0-------------------|-0-2-0-----------------|-3-|
B -3-----5-3---3-----------|-0-----3-0-3-----------|-0-|
G -4---------4---4-2-0-2---|-0-----------4-2-0-2---|-0-|
D -4---------------------0-|-2-------------------2-|-0-|
A -2-----------------------|-2---------------------|-2-|
E -2-----------------------|-0---------------------|-3-| 
Музыка - лучшее утешение для опечаленного человека (Лютер)
Мы стремимся к созданию контента, соответствующего всем нормам законодательства и уважающего интеллектуальную собственность. Мы также придаем большое значение тому, чтобы не задеть никого и не оскорбить чьи-либо чувства. Если у вас есть вопросы или претензии по размещенному материалу, пожалуйста, сообщите нам об этом.
Шрифт
-
0
+
Прокрутка
-
0
+
Стоп
Наверх