Аккорды «Fuel»

Fuel
Fuel была образована в Пенсильвании Карлом Беллом (Carl Bell), Джеффом Аберкромби (Jeff Abercrombie) и Бреттом Скалионзом (Brett Scallions) в 1989 году. В действительности группа Fuel была основана в 1989 году в Крентоне (Kenton), Теннесси, но потом переехала в Харрисбург (Harrisburg), Пенсильвания, в 1994 году, где парни играли в местных барах и ночных клубах. Первый EP группы "Porcelain " был выпущен в 1996 году, и продавался лишь в местном масштабе. Композиция "Shimmer" из этого альбома… Читать полностью... Fuel была образована в Пенсильвании Карлом Беллом (Carl Bell), Джеффом Аберкромби (Jeff Abercrombie) и Бреттом Скалионзом (Brett Scallions) в 1989 году. В действительности группа Fuel была основана в 1989 году в Крентоне (Kenton), Теннесси, но потом переехала в Харрисбург (Harrisburg), Пенсильвания, в 1994 году, где парни играли в местных барах и ночных клубах. Первый EP группы "Porcelain " был выпущен в 1996 году, и продавался лишь в местном масштабе. Композиция "Shimmer" из этого альбома стала маленьким радио хитом. Популярность EP привлекла внимание Sony. На этом лейбле в следующем году и был выпущен второй EP - "Hazelton". Первым полноценным альбомом стала пластинка "Sunburn", вышедшая в 1998 году. Песня "Shimmer" снова была включена и почти достигла Топ-40 хитов, в то время как синглы "Bittersweet", "Jesus or a Gun", "Sunburn" получили немного радиоэфира. После двух с половиной лет затишья Fuel вернулся со своим вторым альбомом - "Something Like Human", попав в Top-40 с композицией "Hemorrhage (In My Hands)" под #17. Немного спустя альбом стал платиновым. Третий альбом появился на прилавках в 2003 году и стал еще одним бестселлером. После постоянных разногласий (как открытых, так и частных) барабанщик Кевин Миллер покинул группу в 2004 году. Fuel 13 декабря 2005 года выпустил сборник своих лучших песен - "The Best of Fuel". 7 февраля 2006 года на официальном сайте группы было объявлено, что солист Бретт Скалионз покидает группу. Оставшиеся члены группы отметили, что он ушел по собственному желанию, и они остались друзьями. "Нам всем будет его не хватать, и мы желаем всего наилучшего", - подчеркнул Белл (Carl Bell) в письме на вебсайте. Fuel уже записали инструментальные треки для 4-го альбома и недавно занялись прослушиванием солистов, поэтому скоро вернутся к работе. Аберкомби и Белл (Carl Bell, Jeff Abercrombie) обратили внимание на участника American Idol Криса Дофтри (Chris Daughtry), после того, как он исполнил "Hemorrhage (In My Hands)" на шоу и сингл попал в Top-10 самых скачиваемых мелодий на iTunes и оставался там нескольно дней. Этот факт вызвал интерес и к другим песням Fuel, которые стали появляться в Top-100 чарте iTunes. 3 Марта 2006 года, Рэнди Джексон (Randy Jackson) обозначил в интервью, что Дофтри (Chris Daughtry) предложили стать новым солистом Fuel. Также группа объявила о своем интересе на вэбсайте. 11 мая 2006 года Аберкомби и Белл (Carl Bell, Jeff Abercrombie) появились на ТВ-шоу "Extra", чтобы официально сделать предложение Дофтри (Chris Daughtry), где он успешно отверг их предложение. Новым барабанщиком группы был назван Томми Стюарт (Tommy Stewart). 8 июня 2006 года Карл (Carl Bell) анонсировал, что группа нашла нового солиста, и они лишь ждут одобрения их звукозаписывающей компании до того, как они смогут предать гласности имя солиста. В записи нового альбома Жош Фриз (Josh Freese) помогал группе в качестве дополнительного ударного. Американские рокеры Fuel готовы представить миру своего нового вокалиста - им стал некто Торин Грин (Toryn Green), обнаруженный музыкантами коллектива в результате «интернет-аудирования». По словам участников Fuel, за последние полгода они получили более тысячи демо-записей претендентов, из которых выбрали, как они уверены, лучшего. «Торин обладает прекрасными вокальными данными и харизмой, у него собственный стиль, который идеально вписывается в концепцию нашей группы, заложенную много лет назад. Дискография группы: Альбомы: 1998 - Sunburn 2000 - Something Like Human 2003 - Natural Selection 2007 - Angels & Devils 2008 - Playlist: The Very Best of Fuel EP: 1994 - Fuel 1996 - Porcelain 1998 - Hazleton Текущий состав: Brett Scallions — вокал, ритм-гитара (1993-2006, 2010-настоящее время) Yogi Lonich — гитара, бэк-вокал (2010, 2011-настоящее время) Brad Stewart — бас-гитара (2010-настоящее время) Ken Schalk — барабаны (2010-настоящее время) Бывшие участники: Jasin Todd - гитара (2010) Toryn Green - вокал (2006-2010) Carl Bell - гитара, клавишные, бэк-вокал (1993-2010) Jeff Abercrombie - бас (1993-2010) Tommy Stewart - ударные, перкуссия (2006-2010) Kevin Miller - ударные, перкуссия (1998-2004) Jonathan Mover - ударные, перкуссия (1997-1998) Jody Abbott - ударные, перкуссия (1993-1997) (as Small the Joy and Fuel) Erik Avakian - клавишные (1993-1996) (as Small the Joy) Скрыть...
Популярные аккорды Fuel:
алфавиту | просмотрам | случайно
  • dropped Eb tuning.
    
    Eb, A, D, G
    
    
    INTRO:
    G----------------------|
    D----------------------|
    A---1--1---------------|
    Eb---------5-5--5--0---|
    
    
    CHORUS:
    G------------------------------|
    D------------------------------|
    A-------1-3-4--4---------------|
    Eb--3-3-----------5--5--2--2-2-|
    
    G--------------------------|
    D--------------------------|
    A--------1-3-4--4----------|
    Eb--3-3------------2-2-2-2-|
    
    
    VERSE:
    G---------------------------|
    D---------------------------|
    A--1--1-----------------3-4-|
    Eb-------5--5--3--3--5------|…
  • Tuning: standard tuning
    
    Notes: Easy Song, just listen to the song for the rhythm
    and when to play which chords
    
    
    Chorus/Verse
       A Esus A             D   Dmin	 tacet (after 1st 
    verse only)
    e|------------|-0--0--0---2---1--0--0----|
    b|-2--p0h-2*-.|-2-p0h-2---3---3--2-p0h2--|
    g|-2---2--2*--|-2--2--2---2---2--2--2----|
    d|-2---2--2*--|-2--2--2---0------2--2----|
    a|-0---0--0*-.|-0--0--0----------0--0----|
    e|------------|-2--2--2------------------|
    *=let…
  • Come In at 1:01
    
    Verse 1: x 4
    g  /-----------------------------
    d ||.---------------------------.||
    a ||.-0-3-0-3-0-3-0-5-0-5-7-5-3-.||
    e  -----------------------------/
    
    Chorus: x 2
    g  /-----------------
    d ||.---------------.||
    a…
  • ------------------------------------------------------------
    ------------------------------------------------------------
    -------------11----11--11-11-11-11--------11---11-----------
    ------------------------------------------------------------
    --------------9-----9---9--9--9--9---------9----9-----------
    0-----------------------------------------------------------
    
    Do…
  • BASS TABLATURE
    
    STANDARD TUNING
    
    INTRO
    
    G-----------------------------| 			G-----------|
    D-----------7-----------------| 			D-----------|
    A-----------------------5-5h7-| first time 		A-----5h7---|  second time
    E--0--3--5------5-5h7-8-------|…
  • Standard Tuning
    
    Intro/Verse
    e-|-----------------------0--0--0----0----------------------
    B-|--8--8-8-8-8-8--8/10---7--7--5----5----------------------
    G-|--9--9-9-9-9-9--9/11---0--0--0----0----------------------
    D-|--9--9-9-9-9-9--9/11---7--7--5----5----------------------
    A-|--7--7-7-7-7-7--7/9----5--5--3----3----------------------
    E-|---------------------------------------------------------
    
    2nd…
  • Tuning: Standard EADGBe
    
                                           D      Dsus4       D
    Intro and verse:                         _       _       
       Fmaj7           Am                   | |     | |    
    |----------0-----|---------0--------|-2-2-x-2-3-3-x--3--3p2-|
    |----1---1---1---|-------1---1------|-3-3-x-3-3-3-x--3--3-3-|
    |.-----2-------2-|---2---------2---.|-2-2-x-2-2-2-x--2--2-2-|
    |.-3-------------|-----2---------0-.|-0-0-x-0-0-0-x--0--0-0-|
    |----------------|0~----------------|-----------------------|
    |----------------|------------------|-----------------------|
    Verse…
  • Tuned down 1 half step: Eb Ab Db Gb Bb Eb
    
    Intro:
       Bm              Bsus2
    (clean elec. Gtr.)
    |--0-0-0-0-0-0-0-0-0—0-0-0-0-0-0-0-|
    |--3-3-3-3-3-3-3-3-2-2-2-2-2-2-2-2-|
    |--4-4-4-4-4-4-4-4-4-4-4-4-4-4-4-4-|
    |--4-4-4-4-4-4-4-4—4-4-4-4-4-4-4-4-|
    |--2-2-2-2-2-2-2-2—2-2-2-2-2-2-2-2-|
    |----------------------------------|
    
    Verse…
  • Drop D tuning (D,A,D,G)
    
    guitar only 
    
    intro (w/bass):
    G:|------------|----------|----------------|--------------|
    D:|------------|----------|*--------------*|--------------|
    A:|-r-r-r------|--r-r-r---|*--------------*|--r--r--r-----|
    D:|-------0-00-|--------0-|-3-0-5-0-00-----|------------0-|
    
    
    verse:
    G:|---------------|-----------|---------|------------------|
    D:|*--------------|----------*|---------|------------------|
    A:|*--------------|-r-r-r----*|-------1-|(1)-1-1-1-1-1-1-2-|
    D:|--3-0-5-0-00---|--------0--|-3-0-5---|------------------|
    
    G:|----------------|-------------|---------------|------------|
    D:|----------------|-------------|*--------------|-----------*|
    A:|(2)-2-2-2-2-2-2-|-----r-r-r---|*--------------|-----------*|
    D:|----------------|0-00-------0-|--3-0-5-0-00---|----------0-|
    
    G:|---------|-------------------|-------------------|
    D:|---------|-------------------|-------------------|
    A:|-------1-|-(1)-1-1-1-1-1-1-2-|-(2)-2-2-2-2-2-2-3-|
    D:|-3-0-5---|-------------------|-------------------|
    
    G:|------------------|-------------------|
    D:|------------------|-------------------|
    A:|(3)-3-3-3-3-3-3-3-|-(3)-3-3-3-3-3-3-3-|
    D:|------------------|-------------------|
    
    chorus:
    G:|-------------|--------------|-----------|-------------------|
    D:|-------------|--------------|-----------|*-----------------*|
    A:|-5---5-4-----|-3----3-2-----|-5--5-4----|*-----------------*|
    D:|---0-----7-0-|---0------5-0-|---0-----7-|--5-5-5-5-5-5-5-5--|
    
    G:|--------------------|-----------------|------------------|
    D:|--------------------|-----------------|------------------|
    A:|-3-3-3-3-3-3-3-3--2-|-1-1-0-0-0-/12--|-r---r---r---r----|
    D:|--------------------|-----------------|------------------|
    
    G:|--------|-------------|-----------------|----------------|
    D:|--------|-------------|-----------------|----------------|
    A:|-3------|-3h5-5-5---5-|-3-3-3-3-3-3-3-3-|3h5-5-5(3-2)*---|
    D:|--------|-------------|-----------------|----------------|…
  • It is drop D tuning
    
    eBGDAD
    
    Intro/Verse
    -----------------------|
    -----------------------|
    -----------------------|
    -----------------------|
    ------------0-8b--0-10b|
    -0-0-5b6-00------------|
    Chase the scar through my head…
  • CHORDS:
    B5: X255XX		G5: 355XXX
    B5/A: X055XX		A5: 577XXX
    B5/G: 3X55XX		E5: 022XXX
    B5/E: 0X55XX		C5: X355XX
    D: XX023X		F#5: 244XXX
    Bm7: X2023X		F5: 155XXX
    Gsus2: 3X02XX		E5: 022XXX
    Em7: 02203X		D5: X577XX
    
    INTRO:
    B5    B5/A…
  • Dropped D Tuning 
    
     Intro and Verse 2x 
     E------------------8-8-8-8-8-8-8-8----|| 
     B--10-10-10-10-10--9-9-9-9-9-9-9-9----|| 
     G---7--7--7--7--7--7-7-7-7-7-7-7-7----|| 
     D---0--0--0--0--0---------------------||…
  • e}---------------------------------------------------------------
    B}---------------------------------------------------------------
    G}---------------------------------------------------------------
    D}---------------------------------------------------------------
    A}---7---5---7---5--4--5---7---5---7---5--4--5---5--6--5--4--6--5
    E}---------------------------------------------------------------…
  • Standard Tuning
    
    Intro
    
    E|---------------------------------------------------|
    B|-12-12-12-13-12-15-15-15-15-13-12-12-12-13-12-11-10|
    G|---------------------------------------------------|
    D|---------------------------------------------------|
    A|---------------------------------------------------|
    E|---------------------------------------------------|
    
    E|---------------------------------------------------|
    B|-10-11-10-10-9-9-10-9-9-8-8-9-8-8-7---7-7-7-7-7-7-7|
    G|---------------------------------------------------|
    D|---------------------------------------------------|
    A|---------------------------------------------------|
    E|---------------------------------------------------|
    
    E|---1-1---4-4---9---|
    B|-------------------|
    G|-------------------|
    D|-------------------|…
  • Standard Tuning
    
    Intro and Verse
    
    E|-----------------------------------------|
    B|-----------------------------------------|
    G|---0-0-0---1-1-1-1-1-1---0-0-0---1-------|
    D|-----------------------------------------|
    A|-------------------------------------5---|
    E|-----------------------------------------|
    
    E|-------------------------------------|
    B|-------------------------------------|
    G|---0-0-0---1-1-1-1-1-1---0-0-0---1---|
    D|-------------------------------------|
    A|-------------------------------------|
    E|-------------------------------------|…
  • TUNING: STANDARD
    (E-A-D-G-B-E)
    
    CHORDS
    E--0----3---1--0--0--3---1-------------------------------
    B--1----3---1--0--1--3---3-------------------------------
    G--2----0---2--1--2--0---2-------------------------------
    D--2----0---3--2--0--0---0--2---3---9---------7---5---4--
    A--0----2---3--2--3--x------2---3---7---------5---3---2--
    E-----------1--0-----3------0---1------------------------…
  • Intro (Repeat as needed)
    Heavy Distortion
    E |----|
    B |----|
    G |----|
    D |----|
    A |----|
    D |-10-|
    
    Chorus 2x
    Distortion
    E |-------------------------------------|
    B |-------------------------------------|
    G |-------------------------------------|
    D…
  • Strings: D,G,D,G (Tune the E and the A String 2/2 steps down)
              ====================
              
              Intro/Verse
                                                           
              G---------------------------------------…
  • Dropped D Tuning (DADGBE)
    
          h - hammer on 
          p - pull off 
          b - bend string up
          r - release bend
          / - slide up
           - slide down
          ~ - vibrato 
          t - right hand tap
          x - play 'note'…
  • Standard tuning (E B G D A E)
    
    ----1----------------1------------4-------------4----2------------------------|
    ------1----------------1------------4---------4---4---------------------------|
    --------1-1h3-1----------1----------------------------------------------------|
    ----------------3-3-----------------------6-----------------------------------|
    ------------------------------3--------4--------------------------------------|
    -1----------------------------------------------------------------------------|…
  • (Rhythm guitar parts)
    Tuned down Ѕ step: (Eb Ab Dd Gb Bb Eb)
    
    CHORDS:
    Am7: X02213
    Am7/E: 0X2213
    D: XX0232
    G: 320033
    G#m: 4X044X
    F: 133211 OR 1332XX OR X33211
    Am: X02210
    E: 022100
    C: X32010
    
    Intro:
    (slight distortion)
     Am7…
  • Tuning: Drop D, heavy distortion			
    
                             7x		
    / E|-----------------------------
    | B|-----------------------------
    | G|-----------------------------
    | D|-----------------------------
    / A|---------8-8-----------------
    |…
  • Verse
    Stripped away (back to verse)
    
    
    -0----0-0-0--0-------|
    -0----0-0-0--0-------|
    -x----x-x-x--x--0-0-0|
    -9h11-9-9h11-9--0-0-0|
    -0----0-0-0--0--9-9-7|
    ---------------------|
    I must have left my sould cracked open like…
  • KEY: D MAJOR (D E F# G A B C#)
    
    TUNING: STANDARD
    (E-A-D-G-B-E)
    
    CHORDS
    E--2--0--2---3---2--
    B--3--2--3---3---2--
    G--2--2--4---0---2--
    D--0--2--4---0---4--
    A-----0--2---2---4--
    E------------3---2--
       D  A  Bm  G  F#m
    
    
    INTRO
    
    D.…
  • Intro/chorus/whole song
    
    e|--------0-----0-----0---------------------|
    B|----------3-----3-----3---3---------------|
    G|----2-------2-----2-----2-----------------|
    D|--0---0-----------------------------------|
    A|------------------------------------------|
    E|------------------------------------------|
    
    Repeat…
  • e|-----------------------------------------------------]
    B|----------------5-6-5-4-5-6-7-8-b9-10-b11-12-11-10-12]
    G|--2-3-2-1-2-3-4-5------------------------------------]
    D|-----------------------------------------------------]
    A|-----------------------------------------------------]
    E|-----------------------------------------------------]…
Наверх