Аккорды «Funeral For A Friend»

Funeral For A Friend
История Funeral for a Friend берёт начало в декабре 2001 года в городке Бридженд на юге Уэльса, когда ребята из местной молодёжной группы January Thirst пригласили Мэтта Дэвиса на роль второго вокалиста. Преданный поклонник стиля панк заметно разнообразил звучание группы, которая до его прихода играла только агрессивный метал. "Моей мечтой всегда была возможность играть в группе, способной легко играть музыку разных стилей и направлений", - говорит Роберт. - "Но я никак не мог найти достойного… Читать полностью... История Funeral for a Friend берёт начало в декабре 2001 года в городке Бридженд на юге Уэльса, когда ребята из местной молодёжной группы January Thirst пригласили Мэтта Дэвиса на роль второго вокалиста. Преданный поклонник стиля панк заметно разнообразил звучание группы, которая до его прихода играла только агрессивный метал. "Моей мечтой всегда была возможность играть в группе, способной легко играть музыку разных стилей и направлений", - говорит Роберт. - "Но я никак не мог найти достойного вокалиста. Когда мы начали работать с Мэттом, мы, наконец, смогли писать песни с мелодией и смыслом, а не тупой метал". "Это у нас стало получаться само собой", - говорит Дэвис. "Мы никогда не размышляли относительно того, какого музыкального стиля мы будем придерживаться. Мы просто писали ту музыку, которая у нас получалась". Перемены в стиле группы вызвали разногласия среди музыкантов, результатом чего стал уход из группы Керри Робертса и приход гитариста Даррена Смита. Вскоре после этого, группа отправляется в Суонси Сити, где музыканты начинают записывать песни на студии "Mighty Atom Studios". "Мы с парнями решили чуток поработать в студии. Нам надо было выяснить, что представляет собой наша группа, как на самом деле звучат наши песни и над чем нам следует ещё поработать", - вспоминает Крис Робертс. Послушав работы молодой группы, сотрудники "Mighty Atom Studios" объявили, что они хотят выпустить их песни на своём независимом лейбле. "Мы офигели от такой заявочки", - вспоминает Дэвис, - "Да, мы писали музыку, но мы даже и не думали о том, что наши песни кто-то захочет выпустить". Так в августе 2002 вышел их дебютный EP "Between Order and Model". "Существует мало групп, по своему звучанию похожих на нас", - говорит Дэвис, - "Единственная группа, которая приходит мне на ум, - это Lostprophets. У нас с ними похожее звучание, похожая музыка и похожие тексты песен, но, несмотря на то, что мы с ними и земляки (обе группы из Уэльса), к нашему звучанию мы пришли двумя совершенно противоположенными путями – они начинали с лёгкой музыки, а мы с хэви-метала". Вслед за выходом альбома группа даёт серию концертов по Великобритании в его поддержку и выступает с такими известными коллективами, как The Juliana Theory, Boy Sets Fire и Finch. А в октябре и сами Lostprophets предложили ребятам выступить на их концерте. "Это было нашим первым крупным шоу", – вспоминает Дэвис, "и, бл*, как на зло, мне было так хреново! Я подхватил офигенно мерзкую простуду. Я должен был выйти на сцену и хорошо, не просто хорошо, а ох*енно хорошо спеть, а я бл* болен! Но нам удалось это!!! Я не думаю, что хотя бы кто-нибудь тогда знал, что за раздолбаи перед ним выступают, но я смотрел на толпу в 2.500 человек, которая пёрлась от нашей музыки, от того, как мы её исполняем..." Вдохновившись успехом этого выступления, Funeral for a Firend отправляются в их первый полномасштабный тур по Великобритании, который прошёл в духе классических традиций (едущий через всю страну потрёпанный фургон, отсутствие свободных гостиничных номеров, убогие обшарпанные сцены...). Но главное – в результате этого тура у группы появились свои преданные поклонники – те люди, которым действительно нравилась их музыка. 2003 год для группы начался выпуском их второго EP "Four Ways to Scream Your Name" (в октябре 2003 года компиляция из двух альбомов группы была выпущена на студии "Ferret Records" в США под названием "Seven Names to Scream Your Name"). В марте 2003, чтобы начать работу над ним, группа уединяется в "Chapel Studio", в городке Линкольншир. "В то время мы были сосредоточены на музыке как никогда раньше", - говорит Дэвис, - "Мы специально выбрали такой мелкий захолустный городок, где бы нас ничего не отвлекало от нашей работы. Кроме студии в этой дыре есть только паб, пара десятков домов, почта, церковь и всё!" Летом 2003 года на группу обратил внимание продюсер Колин Ричардсон, известный по своей работе с Fear Factory и Cannibal Corpse. Он помог группе "навести порядок в их музыкальном хаосе", и, в результате очень кропотливой работы в течение трёх месяцев, вышел в свет первый полноценный альбом "Casually Dressed & Deep in Conversation". Но все тяжкие труды музыкантов воздались по заслугам. Звучание группы сильно изменилось и стало гораздо более серьёзным и профессиональным. Дебютный альбом принёс группе широкую известность, и в сентябре 2003 музыканты отправились на первое в истории группы турне по США, за которым последовали европейские гастроли в качестве разогревающей команды в рамках тура "Dance of Death" знаменитых Iron Maiden. 2004 год группа провела в высоком темпе, дав большое количество концертов и выступая совместно с Franz Ferdinand, The Rapture и Von Bondies. Новый 2005 год группа начала с заявления, что в ближайшее время они начнут работу над новым альбомом, продюсировать который будет Терри Дейт, ранее работавший с Deftones и Limp Bizkit. На недавних концертах группы уже было представлено два новых трека – "Roses for the Dead" и "Airwolf". 14 июня 2005 года выходит второй студийный альбом "Hours". Который записан с использованием некоторых нестандартных приёмов, таких как: голос Мэтта записаный в автомобиле. Альбом тепло встречен как критиками, так и аудиторией. В августе того же года банда побеждает в номинации "Лучшая британская группа". 10 мая 2007 года, группа выпускает свой третий альбом "Tales Don't Tell Themselves". Пластинка примечательна необычным подходом, песни в ней связаны единой смысловой и сюжетной цепочкой. 15 октября 2007 группа выпускает EP "The Great Wide Open" в котором представлены их живые выступления. 13 октября 2008 в свет выходит четвёртый альбом. Он выпускается под собственным лейблом группы "Join Us". В нём впервые вокалист, Мэтт Дэвис, пробует себя в качестве гитариста. 4 сентября 2008 года группа объявляет, что вместо басиста Гарета Дэвиса, в группу приходит Гевин Бёрроу. 28 сентября 2009 года выходит пластинка "Your History Is Mine 2002-2009", в которую входят наиболее примечательные песни группы прошлых лет, а также невошедшие в студийные альбомы песни. Кроме того, в альбом входят четыре новые песни группы. 23 апреля 2010 года об уходе из группы объявляет Дэррен Смит, группа прощается с ним объявив прощальный тур "Casually Dressed & Deep in Conversation". Вместо Дэррена в группу приходит Ричард Бучер. В сентябре 2010 группа выпускает новый EP "The Young and Defenceless", и объявляет о начале работы над новым альбомом. В апреле 2012 года группа вошла в студию, чтобы начать запись своего шестого альбома. 10 апреля, Funeral for a Friend и Crashburn Media объявили о выпуске DVD Casually Dressed and Deep in Conversation: Live and in Full at Shepherds Bush Empire. Помимо того, что живое исполнение дебютный альбом группы в целом (а также другие треки на бис), этот концерт был их последним с давним гитаристом Darran Смит, который должен был уйти (см. выше). 22 мая 2012 года, Райан Ричардс заявил, что покидает группу. Он привел свою семью как причину, сказав: "Я всегда ставил музыку первой в моей жизни, - но пришло время сейчас для моей семьи, чтобы ей занять первое место". Заменой Ричардса, объявленный группой на канале YouTube, является Пэт Ланди. Состав: Мэттью Дэвис (Matthew Davies) – чистый вокал Крис Робертс (Kris Roberts) – гитара, бэк-вокал Гевин Бёрроу (Gavin Burrough) – гитара, бэк-вокал (раньше был басистом) Райан Ричардс (Ryan Richards) – ударные, вокал Ричард Бучер (Richard Boucher) – бас-гитара Скрыть...
Популярные аккорды Funeral For A Friend:
алфавиту | просмотрам | случайно
  • Down half a step, then drop D
    
    Intro (00:14)
    Gb|----------------------------------------------------------------
    Db|----------------------------------------------------------------
    Ab|----------------------------------------------------------------…
  • Drop D
    
    Intro - listen to figure out rhythm
    
    ----------------------------------------------------------------------------
    ----------------------------------------------------------------------------
    -11..----11---11---9----8-----11/-------------------------------------------
    --9..-----9----9---9----9-----9-/-------------------------------------------
    --7..----/9---11---11---11----9-/-------------------------------------------
    ----------------------------------------------------------------------------
    
    Verse/chorus
    Guitar…
  • Tuning: 1/2 Step Down + Dropped D (Db Ab Db Gb)
    
    Intro/Verse Part 1
    Gb|--------------------------------------------------||
    Db|--------------------------------------------------||
    Ab|--------------55/777-------------55/777-----------||
    Db|--5555--5555---------5555--5555-------------------||
    
    Intro/Verse…
  • m = palm mute
    
    GUITAR 1
    
    
    -INTRO:
    
    e|----
    B|----
    G|-6--
    D|-6--
    A|-4--
    E|----
    
    Play two 8th notes, one 8th rest. repeat until 0:34
    
    
    
    -VERSE:
    
      1   2   3   4    1   2   3   4    1   2   3   4    1   2   3   4  
    e|----------------|----------------|----------------|----------------|
    B|----------------|----------------|----------------|----------------|
    G|----------------|5-----3---------|----------------|----------------|
    D|----------------|------------3---|----------------|----------------|
    A|----------------|----------------|----------------|----------------|
    E|----------------|----------------|----------------|----------------|…
  • Bass comes in at 0.24
    
    Intro
    G-----------------------------------|
    D-----------------------------------|
    A-----------------------------------|
    Db---333---333----------333---333---|
    
    Pre Verse
    G-----------------------------------------------------|
    D-----------------------------------------------------|
    A--------------------------------444444444444444444---|…
  • Bass
    Standard tunning on a bass. i prefer to use a five string with a low 'B' to get the low notes
    
    Intro
    0:13
    G|-------------------|
    D|-------------------|
    A|4 let it ring------|
    E|-------------------|
    B|-------------------|
    
    Repeat…
  • Tuning: (low to high) Db, Ab, Db, Gb, Bb, Eb
    
    Intro (Guitar 1) Clean with mild distortion
    Eb|-------------------------------------------------------------------------------|
    Bb|----------------------------15-15-15-15-15-15-13-13-13-13-13-13-13-13-13-13-13-|
    Gb|-14-14-14-14-14-14-14-14-14-14-14-14-14-14-14-14-14-14-14-14-14-14-14-14-14-14-|
    Db|-------------------------------------------------------------------------------|
    Ab|-12-12-12-12-12-12-12-12-12-12-12-12-12-12-12-12-12-12-12-12-12-12-12-12-12-12-|
    Db|-------------------------------------------------------------------------------|
    
    Chorus…
  • (5) - Harmonic.
     .  - Palm mute.
    
    ---
    
    Intro
    
    Eb|--------------------------------------
    Bb|--------------------------------------
    Gb|-----14-10-12--777-777-999-666-7-4-2--
    Db|--9---x--x--x--777-777-999-666-7-4-2--
    Ab|--9--12--8-10--555-555-777-444-5-2-0--
    Db|--9-----------------------------------
    
    The…
  • bass comes in at 0:04 after drum intro
    
    A#|----------------------------------------------------------------------|
    F |------------------------------------------66-666----------------------|
    C |--777---------------------------------7-9-----------------9--7--66-66-|
    Db|-----9-9999-999-999-999-9999--5-5-555---------------7-7-777-----------|x2
    
    (2nd…
  • Tuning: Drop D, Half Step Down
    
    PART 1                                          x6 6th time let note ring
    D#|---------------------------------------12------|-----|
    A#|-----10---------12---------10--------------10--|-----|
    F#|--9------9---9------9---9------9---9-----------|--9--|
    C#|-----------------------------------------------|-----|
    G#|-----------------------------------------------|-----|
    C#|-----------------------------------------------|-----|
    
    PART…
  • 1st verse (may need altering slightly, chords are correct):
    
    E--------------------------------------------------------------------
    B--------------------------------------------------------------------
    G--------------------------------------------------------------------
    D---3-3-3------3-3-3------3-3----------------------------------------x2
    A---3-3-3--3---3-3-3--3---3-3--3-------------------------------------
    E----------3----------3--------3-------------------------------------
    
    E--------------------------------------------------------------------
    B--------------------------------------------------------------------
    G---4-4-4-4--6-6-6-6--8-8-8-8--10-10-10------------------------------
    D--------------------------------------------------------------------
    A--------------------------------------------------------------------
    E--------------------------------------------------------------------
    
    E--------------------------------------------------------------------
    B--------------------------------------------------------------------
    G--------------------------------------------------------------------
    D---3-3-3------3-3-3------3-3----------------------------------------
    A---3-3-3--3---3-3-3--3---3-3--3-------------------------------------
    E----------3----------3--------3-------------------------------------
    
    While…
  • eb
    Bb
    Gb
    Db
    Ab
    Db
    
    Intro
    
    Guitar 1
    
    eb ------------------------------|
    Bb -------------------15---15----|
    Gb ---------------------14----14-|
    Db 15 14 -  14 -  -  -  -  -  -
    Ab -  -  15 - 15  -  -  -  -  -
    Db ----------------------------
    
    
    Guitar…
  • / = slide up
    
    Intro (0:11)
     E|----------------------------------|----------------------------------|
     B|----------------------------------|----------------------------------|
    F#|----------------------------------|----------------------------------|
    Db|-44444-4444444-4444444-4444444-44-|-44444-4444444-4444444-4444444-44-|…
  • Tuning: Drop D then all strings down half a step (Db,Ab,Db,Gb,Bb,Eb)
    
    Key 
    . Palm Mute
    h Hammer On
    p Pull Off
    
    There are no timings or clear strumming pattern but everything is easy to work out
    
    INTRO
    
    KRIS	
    |---------------------------------------
    |---------------------------------------
    |-5-5-55-5-55-5-55-5--55-5-55-5------55-
    |-3-3-33-3-33-3-33-3--55-5-55-5--22--55-…
  • This song is played with both guitars tuned to drop d 
    and then all strings tuned down a half step.
    
    
    Legend:
    
     denotes natural harmonics
    /  denotes slide up
    h  denotes hammer on
    p  denotes pull off
    .  denotes palm mute
    
    
    
    Intro…
  • Intro/verse
    
    |e|---1-----0-----1-----0-3-1---5-----|
    |B|-----1-----1-----1-----------------|
    |G|-----------------------------------|
    |D|-0-----0-----0-----0-------0-------|
    |A|-----------------------------------|
    |E|-----------------------------------|
    |
    |e|-0--------1-------0--------31-----|
    |B|---1--------1-------3----------1---|
    |G|-----0--------0-------0------------|
    |D|-------0--------0-------0----------|…
  • Intro/Verse
    GTR1
    |--------------------------------5---4-------------------------------------|
    |----------------7---9-------------------5---------------------------------|
    |--------6---4/6---6---6---------------------4h6p4-------------------------|
    |-4--4-7---7-------------2----4--------------------2----0-7---6---7---9h11-|
    |-4----------------------2--2-4--------------------2--2-0------------------|
    |-4----------------------2--2-4----4---4---4-------2--2-0---0---0---0------|
    
    --------------------------------------------|
    --------------------------------------------|
    ----9/11-11---------------11/13-13-13-13-11-|
    --------------7---6---7---------------------|
    ----7/9--9----------------9-/11-11-11-11-9--|
    0-0---------0---0---0---0-------------------|
    
    GTR2
    |-----------------------------------------------------------------------------|
    |-----------------------------------------------------------------------------|
    |-----------------------------------------------------------------------------|
    |-4----------------------2----4--------------------2----0---------------------|
    |-4--4-4-4-4-4-4-4-4-4-4-2--2-4--4-4-4-4-4-4-4-4-4-2--2-0-0-0-0-0-0-0-0-0-0-0-|
    |-4--4-4-4-4-4-4-4-4-4-4-2--2-4--4-4-4-4-4-4-4-4-4-2--2-0-0-0-0-0-0-0-0-0-0-0-|
    
    -----------------------------------|
    -----------------------------------|
    -----------------------------------|
    -0-0--0--------------------------0-|
    -0-0--0--0-0-0-0-0-0-0-0-0-0-0-0-0-|
    -0-0--0--0-0-0-0-0-0-0-0-0-0-0-0-0-|
    
    Chorus
    GTR1
    |--------12----9h10p9---------------|
    |-----10----10--------10------------|
    |---9--------------------9----------|
    |-9------------------------11--9--7-|
    |-----------------------------------|
    |-----------------------------------|
    
    GTR2
    |-------------|
    |-------------|
    |-9-----9-----|
    |-9-x12-7-x12-|
    |-7-----9-----|
    |-------------|
    
    Repeat…
  • Intro
    GTR1
    |---------------------------------------------------|
    |---------------------------------------------------|
    |---------------------------------------------------|
    |---------------------------------------------------|
    |-0-4-5-5-x16-5-5-x16-0-0-x16-0-0-x8-10---9---7---5-|
    |-0-4-5-5-----5-5-----0-0-----0-0-------0---0---0---|…
  • Intro
    GTR1
    |--------------------|
    |--------------------|
    |-11-----7-----9-----|
    |-9------5-----7-----|
    |-9--x12-5-x12-7-x12-|
    |-9------5-----7-----|
    
    Chorus
    GTR1
    |--------------------------|
    |--------------------------|
    |-11-----7-----7-----9-----|
    |-9------5-----7-----7-----|
    |-9--x12-5-x12-0-x12-7-x12-|
    |-9------5-----0-----7-----|
    
    GTR2
    |-------------------|----|-------------------|
    |-------------------|----|-------------------|
    |----11----12----14-|----|----11----12----11-|
    |-12----12----12----|----|-12----12----12----|
    |-------------------|-x3-|-------------------|
    |-------------------|----|-------------------|
    
    Verse
    GTR1
    |--------------------|
    |--------------------|
    |-11-----7-----9-----|
    |-9------5-----7-----|
    |-9--x12-5-x12-7-x24-|
    |-9------5-----7-----|
    
    GTR2
    |-------------------------------------------------------|
    |-------------------------------------------------------|
    |-------7-------------7-------------6-----------6-------|
    |-----7---7---------7---7---------7---7-------7---7-----|
    |---9-------9-----9-------9-----9-------9---9-------9---|
    |-9-----------9-9-----------9-9-----------9-----------9-|
    
    Bridge
    GTR1…
  • Standard Tuning - E B G D A E (High to Low)
    
    
    ---------------------------------------------------------------------------------------
    
    Intro - (0:00 - 0:22)
    
    |------------------------------------------------------------------------|
    |------7----7---------7----7---------7----7---------7--------------------|
    |---/7---/6---76-6/7---/6---76-6/7---/6---76-6/7---/6-----------------|
    |------------------------------------------------------------------------|
    |------------------------------------------------------------------------|
    |------------------------------------------------------------------------|
    
    ---------------------------------------------------------------------------------------
    
    1st…
  • Intro
    GTR1
    |------------------|---------|
    |------------------|---------|
    |------------------|---------|
    |-7---5------------|---------|
    |-------8-7--5-3-5-|-0-xlots-|
    |------------------|-0-------|
    
    GTR2
    |------------------|---------|
    |------------------|---------|
    |------------------|---------|
    |-10--8-7----------|-0~------|
    |---------10-8-7-8-|-0~------|
    |------------------|-0~------|
    
    Verse
    GTR1
    |---------------------------------|-------------------------------|
    |---------------------------------|-------------------------------|
    |---------------------------------|-------------------------------|
    |-0-------------------------------|-------7---8---------7---5---7-|
    |-0-----10-8----8-10-8----12-10-8-|-----------------8-------------|
    |-0-0-0------12--------12---------|-8-8-8---8---8-8---0---0---0---|
    
    |---------------------------------|--------------------------------|
    |---------------------------------|--------------------------------|
    |---------------------------------|--------------------------------|
    |---------------------------------|-------7---7---------10---8---7-|
    |-------10-8----8-10-8----12-10-8-|-----------------8--------------|
    |-0-0-0------12--------12---------|-8-8-8---8---8-8---0----0---0---|
    
    
    GTR2
    |----------|---------------------------------|
    |----------|---------------------------------|
    |-7---10---|---------------------------------|
    |--x6---x6-|-0-------------------------------|
    |-5---8----|-0-----8---10-----8---7---10---8-|
    |----------|-0-0-0---0----0-0---0---0----0---|
    
    Pre…
  • Drop D, Down 1/2 Step Db Ab Db Gb Bb Eb
    
    >< - Scratch/Dead Note
    x - Palm Mute
    / - Slide
    h - Hammer On
    p - Pull Off
    ~ - Let Ring
    b - Bend
    tp - Tremolo Pick
    
    Intro/Verse Guitar 1:
    Eb|--2---3~---2---3~---5---3~---5---3~-|
    Bb|---3~-------3~-------3~-------3~----|
    Gb|------------------------------------|
    Db|------------------------------------|
    Ab|------------------------------------|
    Db|------------------------------------|
    
    Intro/Verse…
  • drop b 
    
    Vers:
    
    |-------------------------------------|
    |-------------------------------------|
    |-7-------------5---------------------|
    |-7-------5h7p5-5-2h3p2-2h3p2---------|
    |-5-5-7-8-------3-------------5-5-5-5-|
    |-------------------------------------|
    
    |------------------------------------------------|
    |------------------------------------------------|
    |---------------5--------------------------------|
    |-7-------------5--------3-3-3-3-2-2-2-2---------|
    |-7-------5h7p5-3-1-1-1-1----------------3-3-3-3-|
    |-5-5-7-8----------------------------------------|
    
    Chorus:
    
    |-------------------------------------------|
    |-------------------------------------------|
    |-5-----------------------------------------|
    |-5-2-----------3/5-2h3p2-----3p2-----------|
    |-3-5-3h5p3-1-1-----------3p0-----5p0-3p0-0-|
    |-------------------------------------------|
    
    Bridge…
  • Intro
    GTR1
    |----|
    |----|
    |----|
    |-0~-|
    |-0~-|
    |-0~-|
    
    GTR2
    |----|
    |----|
    |-9~-|
    |----|
    |----|
    |----|
    
    Verse
    GTR1
    |------------------------------------|-----------------------------------------|
    |------------------------------------|-----------------------------------------|
    |-9---9--------------7---------------|--------------------------------12-11----|
    |-9-----------------------------9----|----9-------12------------12----------12-|
    |-7-7---7-9-10-7-7-7---7-9-10-7---10-|------10-------10----9-10----10----------|
    |------------------------------------|-10------10-------10---------------------|
    
    |------------------------------------|----------------------------------|
    |------------------------------------|-------------------------------7*-|
    |-9---9--------------7---------------|-------------------------7*-------|
    |-9-----------------------------9----|----9-------12--------7*----7*----|
    |-7-7---7-9-10-7-7-7---7-9-10-7---10-|------10-------10-----------------|
    |------------------------------------|-10------10-------10--------------|
    
    GTR2
    |---------------------|
    |---------------------|
    |-9----11---12---14---|
    |--x16---x8---x4---x4-|
    |-7----9----10---12---|
    |---------------------|
    
    Pre…
  • Key: Ab
    
    Tuning: Standard EADGBe
    
    Chords used:
    Eb -   x68886
    Fm -   133111
    C# -   x46664
    Ab -   466544
    Eb/G - 365xxx
    Bbm -  x13321
    Ab/C - x365xx
    
    
    Intro: Eb-Fm-C#-- x4
    
    
    Verse 1:
    Eb          Fm…
  • Intro
    GTR1
    |--------------------------------------|----|--------------------------------------|
    |--------------------------12----------|----|--------------------------12----------|
    |-----12-----11-------------------11p0-|----|-----12-----11-------------------11p0-|
    |---9------9------9-12---9------9------|----|---5------5------5-12---5------5------|
    |-7------7------7------7------7--------|-x2-|-3------3------3------3------3--------|
    |--------------------------------------|----|--------------------------------------|
    
    |--------------------------------------|
    |--------------------------12----------|
    |-----12-----11-------------------11p0-|
    |---7------7------7-12---7------7------|
    |-5------5------5------5------5--------|…
  • DROP Db TUNING - (Db-Ab-Db-Gb-Bb-Eb)
    
    legend: 
    
    | b       bend 
    | r       return 
    | /       slide up 
    | \       slide down 
    | h       hammer on 
    | p       pull off 
    | *       pinch harmonic 
    | ~       tremolo…
  • INTRO
    Guitar 1 Only
    
    Eb|-------------------------------------------|
    Bb|-----------------------5---55---5----5--#7-|
    Gb|-----7---77---7---77-----7----7---77-------|
    Db|-------------------------------------------|…
  • DROP Db TUNING - (Db-Ab-Db-Gb-Bb-Eb)
    
    legend: 
    
    | b       bend 
    | r       return 
    | /       slide up 
    | \       slide down 
    | h       hammer on 
    | p       pull off 
    | *       pinch harmonic 
    | ~       tremolo…
  • Tuning: Half-step down (Eb Ab Db Gb Bb eb)
    
    Intro 1:
    
    Guitar 1:
    eb|-------------------------------------------------------------------------|
    Bb|-------------------------------------------------------------------------|
    Gb|-------------------------------------------------------------------------|
    Db|--2~---------------------------------------------------------------------|
    Ab|--2~---------------------------------------------------------------------|
    Eb|--0~---------------------------------------------------------------------|
    
    Guitar…
  • Standard 
    (high to low = Eb, Bb, Gb, Db, Ab, Eb).
    
    
    VERSE:
    D            G
    I'm on fire, close to the water
    D                 G
    And I'll be saved again
    D                     G
    Staring at the ocean, over and over
    D…
  • Key: Eb
    
    Tuning: Standard EADGBe
    
    Chords used:
    Cm - x35543
    Eb - x68886
    G# - 466544
    Bb - x13331
    Gm - 355333
    
    
    Intro: Cm  Cm Eb Cm Bb Cm Bb  
    
    
    Verse 1:
    Cm
      Days in motion
    From the west
    coasts to the ocean
    Eb…
  • C#G#C#F#A#D#
    
    Intro - Clean
    |-7-|
    |-0-|
    |-4-|
    |-5-|
    |-5-|
    |---|
    
    Then 
    Lead
    |-----------|
    |-----------|
    |-7----6----|
    |--x16--x16-|
    |-5----4----| x2
    |-----------|
    
    Rhythm
    |-------------|
    |-------------|
    |-7-----6-----|
    |-5-----5-----|
    |-5-x16-4-x16-|…
  • Intro
    GTR1
    |-------------------------------------------------|
    |----------15-15-15----------15-15-15-------15-15-|
    |-14-14-14-14-14-14-14-14-14-14-14-14-14-14-14-14-|
    |-------------------------------------------------|
    |-12-12-12-12-12-12-12-12-12-12-12-12-12-12-12-12-|
    |-------------------------------------------------|
    
    GTR2…
  • Intro
    GTR1
    |---------------------------|
    |---------------------------|
    |-7-7-7-7-7-7-7-7-7-7-7-7-7-|
    |-5-5-5-5-5-5-5-4-4-4-4-4-4-| x2
    |-3-3-3-3-3-3-0-7-7-7-7-7-7-|
    |---------------------------|
    
    Pre Verse
    GTR1
    |-----------------------------|----|-------------------0-|
    |-----------------------------|----|-------------------5-|
    |---0-------------------------|----|-----0-----0-----0---|
    |-----4-----------------------|----|---4-----4-----4-----|
    |-7-----5---------------------|-x3-|-3-----3-----5-------|
    |-----------------------------|----|---------------------|
    
    GTR2
    |-----------------------------|----|-------------------0-|
    |---7---10---7---7---10-8-7---|----|-------------------5-|
    |-7---7----7---7---7--------7-|----|-----0-----0-----0---|
    |-----------------------------|----|---4-----4-----4-----|
    |-----------------------------|-x3-|-3-----3-----5-------|
    |-----------------------------|----|---------------------|
    
    Then
    |-----------------------------|----|---------------------|
    |-----------------------------|----|---------------------|
    |---0-------------------------|----|-----0-----0-----0-0-|
    |-----4-----------------------|----|---4-----4-----4---4-|
    |-7-----5---------------------|-x3-|-3-----3-----5-----5-|
    |-----------------------------|----|---------------------|
    
    GTR2
    |-----------------------------|----|
    |---7---10---7---7---10-8-7---|----|
    |-7---7----7---7---7--------7-|----|
    |-----------------------------|----|
    |-----------------------------|-x3-|
    |-----------------------------|----|
    
    Verse
    GTR1
    |---------------------------------|----|-------------------0-----|
    |---------------------------------|----|---------------------3---|
    |------------7-------------7------|----|-----0-2---0-2---0-----0-|
    |-2-----------------7--------7----|----|---4-----4-----2---------|
    |-2-x9--9-10---9-10---9-10-----10-|-x3-|-3-----------------------|
    |-2-------------------------------|----|-------------------------|
    
    GTR2
    |---------------------------------|----|-------------------------|
    |-------7-------------------------|----|-------------------------|
    |---------9--7--------9-7---------|----|-----0-----0-----0-0-----|
    |-2--------------9-10-------------|----|---4-----4-----4-----4---|
    |-2-x9----------------------------|-x3-|-3-----3-----5---------5-|
    |-2-------------------------------|----|-------------------------|
    
    Then
    GTR1
    |---------------------------------|----|---------------------|
    |---------------------------------|----|---------------------|
    |------------7-------------7------|----|-----0-2---0-2---0-2-|
    |-2-----------------7--------7----|----|---4-----4-----4-----|
    |-2-x9--9-10---9-10---9-10-----10-|-x3-|-3-------------------|
    |-2-------------------------------|----|---------------------|
    
    GTR2
    |---------------------------------|----|---------------------|
    |-------7-------------------------|----|---------------------|
    |---------9--7--------9-7---------|----|-----0-----0-----0-0-|
    |-2--------------9-10-------------|----|---4-----4-----4---4-|
    |-2-x9----------------------------|-x3-|-3-----3-----5-----5-|
    |-2-------------------------------|----|---------------------|
    
    Chorus…
  • C#G#C#F#A#D#
    
    Intro
    Rhythm
    |----------|
    |----------|
    |-9--------|
    |-9--9--11-|
    |-7--9--11-|
    |----9--11-|
    
    Verse
    Rhythm
    |--------------------------|
    |--------------------------|
    |--------9-----------------|
    |-11-----9-x16-9-----7-----|
    |-11-x16-7-----9-x16-7-x16-|…
  • Tunning: Half-step down
    
    
    e-----2--------2--------0--------0--------2--------2--------0--------0-----|
    b---3---3----3---3----3---3----3---3----3---3----3---3----3---3----3---3---|
    g-4-------2---------0-------0--------4---------2--------0-------0--------4-|
    d--------------------------------------------------------------------------|
    a--------------------------------------------------------------------------|
    e--------------------------------------------------------------------------|…
  • STANDARD Eb TUNING - (Eb-Ab-Db-Gb-Bb-Eb)
    
    legend: 
    
    | b       bend 
    | r       return 
    | /       slide up 
    | \       slide down 
    | h       hammer on 
    | p       pull off 
    | *       pinch harmonic 
    | ~       tremolo…
  • tuning: Drop D (DBGDAe) low to high
    
    verse (rising shows the signs)
    
    e|---------------------------|
    B|---------------------------|
    G|---------------------------|
    D|24424xxx4424-000000-/777x--|  [x4]
    A|24424xxx4424-000000-/777x--|
    D|24424xxx4424-000000-/777x--|
    
    verse…
  • Intro
    GTR1
    |---------------------------|----------------------------|
    |---------------------------|----------------------------|
    |---------------------------|----------------------------|
    |-------------6---8---9p8---|-------------6---8---11p8---|
    |---------9---------------9-|---------9----------------9-|
    |-6-6-6-6---6---6---6-------|-6-6-6-6---6---6---6--------|
    
    |----------------------------|----------------------------|
    |----------------------------|----------------------------|
    |----------------------------|-----------------8----------|
    |-------------6---11p8-----8-|-------------6-----8---11p8-|
    |-7-7-7-7-9-7---7------9p6---|-7-7-7-7-9-7---7-----9------|
    |----------------------------|----------------------------|
    
    GTR2
    |--------|
    |--------|
    |--------|
    |-6~--2~-|
    |-6~--2~-|
    |-6~--2~-|
    
    Chorus
    GTR1
    |----------------------------------------|
    |----------16----14----14----14----------|
    |-13~---------13----13----13----13-11-13-|
    |----------------------------------------|
    |-11~------------------------------------|
    |----------------------------------------|
    
    GTR2
    |------------------|
    |------------------|
    |------------------|
    |-6-----2-----4----|
    |-6-x16-2-x12-4-x4-|
    |-6-----2-----4----|
    
    Verse
    GTR1
    |---------------------------|----------------------------|
    |---------------------------|----------------------------|
    |---------------------------|----------------------------|
    |-------------6---8---9p8---|-------------6---8---11p8---|
    |---------9---------------9-|---------9----------------9-|
    |-6-6-6-6---6---6---6-------|-6-6-6-6---6---6---6--------|
    
    |----------------------------|----------------------------|
    |----------------------------|----------------------------|
    |----------------------------|-----------------8----------|
    |-------------6---11p8-----8-|-------------6-----8---11p8-|
    |-7-7-7-7-9-7---7------9p6---|-7-7-7-7-9-7---7-----9------|
    |----------------------------|----------------------------|
    
    GTR2
    |-----------------------------|----|----11-|
    |-----------------------------|----|-------|
    |-13--13-13-13-11-11-11-------|----|-13----|
    |-----------------------13-11-|----|-------|
    |-----------------------------|-x2-|-------|
    |-----------------------------|----|-------|
    
    Pre…
  • Intro
    GTR1
    |----|
    |----|
    |----|
    |-0~-|
    |-0~-|
    |-0~-|
    
    Verse
    GTR1
    |----------------------------------------|
    |----------------------------------------|
    |----7-7------10-10------7-7------9-9----|
    |----------------------------------------|
    |----------------------------------------|…
  • iNTRO
    
    G|-------------------
    D|-------------------
    A|---2~--------------
    E|--------4~---2~---0 X2
    
    Ends on
    
    G|------
    D|------
    A|--2~--
    E|------
    
    Verse
    
    G|--------------------------------------------------------------
    D|--------------------------------------------------------------
    A|-----------------------------------------------7--7---7--3/5--
    E|---9-9--9-9-9--9-9-9-9/11-11-11---9-9--9-9--9-----------------
    
    G|------------------------------------------------------------------
    D|------------------------------------------------------------------
    A|------------------------------------------------------------------
    E|---4-4-4--4-4--4-4/6-6-6--7-7-7---3-3-3--3-3--3-3/5-5-5--7-7-7-7--
    
    G|--------------------------------------------------------------
    D|--------------------------------------------------------------
    A|-----------------------------------------------7--7---7--3/5--
    E|---9-9--9-9-9--9-9-9-9/11-11-11---9-9--9-9--9-----------------
    
    G|
    D|------------------------------------------------------------------
    A|--------------------------------------------------2-2-2-2---------
    E|---4-4-4--4-4--4-4/6-6-6--8-8-8---4-4-4--4-4--4-------------------
    
    CHorus
    
    G|-------------------
    D|-------------------
    A|---7/8~---7/8--10--
    E|-------------------…
  • GUITAR ONE
    Eb :----------------------|------------------------|
    Bb :----------------------|------------------------|
    Gb :----------------------|------------------------|
    Db :----------------------|------------------------|
    Ab…
  • Tuning:Db Ab Db Gb Bb Eb
    
    Verse - Awake, I Am Awake...       \/ 2 Guitars here (harmonised) \/ all x2
    eb|------------------------------|-----------------------------------------|
    Bb|------------------------------|-----------------------------------------|
    Gb|--7-7---5/7---9---5-5/7-------|---------------9~--7~---3~---------------|
    Db|--x-x---x-x---x---x-x-x----x3-|-Then…
Наверх