Аккорды «F.Y.P»

F.Y.P
F.Y.P (the Five Year Plan) - панк-рок-группа, основанная Тоддом Конгельером в Сан Педро, Калифорния (США), в 1989 г. F.Y.P (the Five Year Plan) - панк-рок-группа, основанная Тоддом Конгельером в Сан Педро, Калифорния (США), в 1989 г. Скрыть...
Популярные аккорды F.Y.P:
алфавиту | просмотрам | случайно
  • G:-----------------------------------/-this is the whole song
    D:-----------------------------------/--------------------------
    A:-6----77-99-77-9-10-9-7---/-------------------------
    E:---77----------------------------/-------------------------…
  • G:---------------------------------------------------------------
    D:---------------------------------------------------------------
    A:---------------------------------------------------------------
    E:-3-3-3--5-5-5-5-7-7-7--9-9-9-----------------------------------…
  • VERSE: this is played through the whole verse
    
    G:---------------------------------------------------------------
    D:---------------------------------------------------------------
    A:---------------------------------------------------------------
    E:--5>>-------------------------------------------------------------
    
    
    CHORUS:
    G:---------------------------------------------------------------
    D:---------------------------------------------------------------
    A:----------5-----------------------------------------------------
    E:--5-7-5-----------------------------------------------------------…
  • G:---------------------------------------------------------------
    D:---------------------------------------------------------------
    A:--------------3--3-3-3-3-3-------------------------------------------
    E:-5--5-5-5-5-5--------------------------------------------------------
    
    
    G:---------------------------------------------------------------
    D:---------------------------------------------------------------
    A:---------------5--5-5-5-5-5---3--3-3-3-3-3---0--0-0-0-0-0------…
  • G:---------------------------------------------------------------
    D:---------------------------------------------------------------
    A:-3-3-3---------------------------------------------------------
    E:-------5>7--7-7-7-7-7--7-7-7-----------------------------------…
  • INTRO: 
    
    G:----------------------------------------------------- 
    D:----------------------------------------------------- 
    A:------------------7-7-7-7-7-7------------------------ 
    E:-7-7-7-7-7-7---------------------4-5-7-7-7-7-7-7-----…
  • Verse:
    G:---------------------------------------------------------------
    D:---------------------------------------------------------------
    A:---------------------------------------------------------------
    E:-5--5--0-0-0-0-5--5-0-0-0-0--5-5-0-0-0-0-7-7-3-3---------------
    
    
    Chorus:
    G:----------------------|-----------------------------------------
    D:----------------------|-----------------------------------------
    A:----------------------|-----------------------------------------
    E:-7-7-7-7-7-7--3-3-5-5-|-3-3-5-5---------------------------------…
Наверх