Аккорды «Genesis»

Genesis
Genesis — английская рок-группа, созданная в 1967 году и принадлежавшая изначально движению прогрессивного рока. Группа получала награды Грэмми, продала по всему миру более 150 миллионов альбомов и вошла по этому показателю в top 30 всех времен. Самые ее известные участники, Питер Гэбриэл и Фил Коллинз, сделали успешные сольные карьеры. Бессменные члены коллектива: Тони Бэнкс — клавишные Майк Резерфорд — гитара, бас-гитара Эта одна из наиболее выдающихся британских групп была сформирована в конце… Читать полностью... Genesis — английская рок-группа, созданная в 1967 году и принадлежавшая изначально движению прогрессивного рока. Группа получала награды Грэмми, продала по всему миру более 150 миллионов альбомов и вошла по этому показателю в top 30 всех времен. Самые ее известные участники, Питер Гэбриэл и Фил Коллинз, сделали успешные сольные карьеры. Бессменные члены коллектива: Тони Бэнкс — клавишные Майк Резерфорд — гитара, бас-гитара Эта одна из наиболее выдающихся британских групп была сформирована в конце 60-х, когда ее участники еще учились в школе. В оригинальный состав команды, называвшейся сперва «Garden Wall», вошли Питер Гэбриэл (р. 13 февраля 1950; вокал), Тони Бэнкс (р. 27 марта 1951; клавишные), Энтони Филипс (гитара), Майк Рутерфорд (р. 2 октября 1950; бас, гитара) и Крис Стюарт (ударные). В 1967-м квинтет записал демопленку и отправил ее выпускнику той же школы, где учились и остальные парни, Джонатану Кингу, работавшему на тот момент в «Decca». С подачи Кинга коллектив сменил название на «Genesis» и под его руководством выпустил пару синглов и один альбом. Особого интереса «From Genesis To Revelation» у публики не вызвал, и поэтому «Decca» расторгла контракт. Команду подобрал свежеиспеченный лейбл «Charisma Records», но у ансамбля оставалась еще одна проблема – текучка ударников. На сессиях «FGTR» Стюарта сменил Джон Силвер, а уже при записи «Trespass» за барабаны уселся Джон Мэйхью. Если первые записи «Genesis» были сделаны под влиянием «Bee Gees», то на второй пластинке композиции стали сложнее и продолжительнее. После выхода «Trespass» в составе произошли две ключевые замены: место Филипса занял Стив Хакетт, а ударную установку оккупировал экс-участник «Flaming Youth» Фил Коллинз. Первая пластинка, записанная обновленной конфигурацией, получилась не очень удачной, и лейбл начал сомневаться в своих подопечных. Однако на следующий год «Genesis» исправили ситуацию, выпустив один из своих самых значимых опусов, «Foxtrot». Альбом попал на 12-е место в британских чартах и подарил любителям прога такие классические треки как «Watcher of the Skies» и «Supper’s Ready». Еще один шаг к успеху команда сделала осенью 1973-го, загнав диск «Selling England By The Pound» на третью строчку национального хит-парада. Спустя год на свет появился самый амбициозный проект «Genesis» – двойной концептуальный альбом «The Lamb Lies Down On Broadway». Работа вызвала бурю восторгов, однако вместе с тем ранее сплоченный коллектив дал трещину. Гэбриэл отвечал за идею и тексты «The Lamb…», в то время как остальные участники ансамбля писали музыку, не привлекая к этому делу Питера. В ходе последующего тура вокалист объявил о своем скором уходе, озадачив коллег поисками замены. Перепробовав ряд кандидатур со стороны, музыканты решили доверить партии Гэбриэла Филу Коллинзу, тем более что ударник уже раньше пел на некоторых вещах «Genesis». Многие предрекали близкий конец команды, однако после выхода таких прекрасных альбомов как «A Trick Of The Tail» и «Wind & Wuthering» число скептиков изрядно поубавилось. Группа также неплохо справлялась и с концертной деятельностью, приглашая на гастрольный период сессионных ударников типа Билла Бруфорда и Честера Томпсона. Очередную утрату коллектив понес в 1977-м, когда после записи концертника «Seconds Out» ушел Хакетт. Сокращение до формата трио было отражено в названии студийного альбома «…And Then There Were Three…», который также обозначил разворот к радиодружественным песням. В дальнейшем коллектив продолжал двигаться в сторону поп-рока и тем самым обеспечивал себе коммерческий успех. Все студийные работы периода 80-х неизменно попадали на верхушку британских чартов и тиражи продаваемых дисков неуклонно росли. Самым раскупаемым альбомом стал альбом «Invisible Touch», чей заглавный трек угодил на высшую строчку в «Billboard». Во второй половине 80-х Коллинз и Рутерфорд все большее внимание уделяли работе на стороне, поэтому очередной студийник «Genesis» появился только после пятилетнего перерыва. «We Can’t Dance», сопровождаемый рядом хит-синглов, также как и его предшественники, воцарился на первом месте национального чарта. За ним последовали два концертника, «The Way We Walk, Volume One: The Shorts» и «The Way We Walk, Volume Two: The Longs», обозначившие две стороны творчества группы: поп-роковую и прог-роковую. В 1996-м ушел Коллинз, а Рутерфорд и Бэнкс взяли к себе в компанию Рэя Уилсона (экс-«Stiltskin»). Записанный с ним диск «Calling All Stations» имел некоторый успех в Европе, но в Америке работа провалилась. Последовавшее турне было урезано, и вскоре проект впал в длительную кому. Лишь в конце 2006-го Бэнкс, Коллинз и Рутерфорд объявили о реюнионе и о планах проведения тура под названием «Turn It On Again». После большого количества спекуляций о воссоединении Бэнкс, Коллинз и Рутерфорд 7 ноября 2006 года объявили о концертном туре Turn It On Again: The Tour, почти через сорок лет после основания группы. Тур намечался на лето 2007 года, он должен был пройти по 12 странам Европы, а затем переместиться в Северную Америку. Участники трио желали объединиться также и Гэбриэлом и Хаккетом для концертного представления The Lamb Lies Down on Broadway. Хотя Гэбриэл в принципе был не против, он не смог уложиться в график. Коллинз позднее говорил, что «Питер несколько излишне осторожен насчёт возврата к чему-то, что изначально замышлялось как развлечение». Хаккет принял приглашение, но без Гэбриэла Фил, Тони и Майк решили, что более приемлемо будет вернуть Честера Томпсона и Дэрила Стюрмера. Хаккет, тем не менее, до сих пор поддерживает хорошие отношения с остальными участниками. Небольшая заметка о его добрых пожеланиях затее с воссоединением опубликована на его веб-сайте. В свою очередь и Стрюемер, и Томпсон вернулись на правах музыкантов сопровождения. Группа и её продюсер Ник Дэвис собираются переиздать весь свой каталог в трёх томах в течение 2007 года. Каждый том будет содержать треть альбомов группы (начиная с Trespass, заканчивая Calling All Stations) в виде бокс-сета. Каждый такой бокс-сет будет состоять из многоканальных гибридных дисков с дорожками Super Audio CD, а также DVD-Video со звуком DTS 96/24 и Dolby Digital 5.1. DVD-диски будут содержать дополнительные материалы, такие как промо-клипы и новые интервью, в которых группа обсуждает период, когда создавался каждый альбом. 12 мая 2007 года группа была почётным гостем второй ежегодной церемонии VH1 Rock Honors, вместе с Оззи Осборном, Heart и ZZ Top. Они исполнили «Turn It On Again», «No Son of Mine» и «Los Endos». 11 июня в Хельсинки стартовал их концертный тур. Они собираются дать более 50 концертов во многих странах, включая Данию, Бельгию, Германию, Францию, Италию, Великобританию, США и Канаду. Шоу в Германии транслировалось для показа в нескольких кинотеатрах в Великобритании и Европе. 7 июля 2007 года Genesis приняли участие в концерте Live Earth на стадионе Уэмбли в Лондоне, посвящённому борьбе с глобальным потеплением. Вместе с ними выступали Мадонна, Duran Duran и Red Hot Chili Peppers. По итогам концертного тура 27 мая 2008 года вышел двойной DVD When in Rome с записью концерта Genesis в Риме 14 июля 2007 года. В специальное издание был также включен третий, бонусный, диск Come Rain or Shine, содержащий информацию о подготовке к туру начиная с первых обсуждений в октябре 2006 году, после которых охвачен период с семи месяцев до первого шоу до восемь дней перед ним. Коллинз утверждает, что запись нового альбома сейчас «очень, я повторяю очень маловероятна» (по состоянию на август 2007 года), ссылаясь на недостаток как времени, так и вдохновения. Тем не менее 22 августа Бэнкс сказал: «Мы трое собираемся сделать шаг и посмотреть что случится». Скрыть...
Популярные аккорды Genesis:
алфавиту | просмотрам | случайно
  • Eb----------------------------------------------|
    Bb----------------------------------------------|
    Gb--12-12-12-11-7-9--7-9--12-12-12-11-7-9--7-9--|
    Db----------------------------------------------|
    Ab----------------------------------------------|
    Eb----------------------------------------------|
    
    Eb|-------------------------------------------|
    Bb|-------------------------------------------|
    Gb|-12-12-12-11-7-9--7-9-12-12-12-11-12-14-12-|
    Db|-------------------------------------------|
    Ab|-------------------------------------------|
    Eb|-------------------------------------------|
    
    Eb-------|
    Bb-------|
    Gb--11-9-|
    Db-------|
    Ab-------|
    Eb-------|
    
    VERSE
    
    Play…
  • INTRO
    
    |--17--17--17--17|--13--13--13--13-|--13--13--13--13-|--10--10--10--10-|
    |----------------|-----------------|-----------------|-----------------|
    |----15--15--15--|----15--15--15---|----12--12--12---|----12--12--12---|
    |-0--------------|-0---------------|-0---------------|-0---------------|
    |----------------|-----------------|-----------------|-----------------|
    |----------------|-----------------|-----------------|-----------------|
    
    |--12--12--12--12|---8---8---8---8-|---8---8---8---8-|--5---5---5---5--|
    |----------------|-----------------|-----------------|-----------------|
    |----10--10--10--|----10--10---10--|-----7---7---7---|----7---7---7----|
    |-0--------------|-0---------------|-0---------------|-0---------------|
    |----------------|-----------------|-----------------|-----------------|
    |----------------|-----------------|-----------------|-----------------|
    
    |----------------|---3---3---3---3-|-----------------|
    |--8---8---8---8-|-----------------|---6---6---6---6-|
    |----7---7---7---|-----5---5---5---|-----5---5---5---|
    |-0--------------|-0---------------|-0---------------|
    |----------------|-----------------|-----------------|
    |----------------|-----------------|-----------------|
    
    |--1---1---1---1-|---0---0---0---0-|---1---1---1---1-|---0---0---0---0-|
    |----------------|-----------------|-----------------|-----------------|
    |----3---3---3---|-----3---3---3---|-----3---3---3---|-----3---3---3---|
    |----------------|-----------------|-----------------|-----------------|
    |----------------|-----------------|-----------------|-----------------|
    |-3--------------|-3---------------|-3---------------|-3---------------|
    
    VERSES
    
    Home…
  • "Can you tell me where my coutry lies?"
    Said the unifaun to his true love's eyes
    
    "It (C#m)lies with me" cried the (G#m)queen of maybe
    For her (C#m)merchandise he (A)traded in his (C#m)prize (G#m) (A)
    
    (A)"Paper (B)late"…
  • INTRO/CHORUSES 1,2 AND 3
    
    E|-6-6-6-5-3-1-1--1--3---6--6--6--5--3--1--1--1--3---6--6--6--5--3--1--1--1--3-|
    B|-----------------------------------------------------------------------------|
    G|-----------------------------------------------------------------------------|
    D|-----------------------------------------------------------------------------|
    A|-----------------------------------------------------------------------------|
    E|-----------------------------------------------------------------------------|
    
    E|--6--6--6--5--3--1--1--1--3-|
    B|----------------------------|
    G|----------------------------|
    D|----------------------------|
    A|----------------------------|
    E|----------------------------|
    
    VERSE
    
    E|---------------------------------5--5--3--5----------------------------------|
    B|-----------------------------------------------------------------------------|
    G|---7--7---5--5---10--10---10-10---------7--7---5--5---10--10--12--12--12--12-|
    D|-----------------------------------------------------------------------------|
    A|-----------------------------------------------------------------------------|
    E|-----------------------------------------------------------------------------|
    
    E|-----------------------5--5--3--5--------------5--5--3--5--1--1---1--1--1--3-|
    B|-----------------------------------------------------------------------------|
    G|--12----10--10---10-10---------10--10---10-10--------------------------------|
    D|-----------------------------------------------------------------------------|
    A|-----------------------------------------------------------------------------|
    E|-----------------------------------------------------------------------------|
    
    The…
  • INTRO
    E|---2------------------------2-2-2----3--5--7-------------------------0-|
    B|---3------------------------3-3-3--2---------------------------------0-|
    G|---2------------0---2--4----2-2-2---------------------7--------------1-|
    D|---0------------------------0-0-0------------------------------------2-|
    A|---------------------------------------------------------------------2-|
    E|---------------------------------------------------------------------0-|
    
    VERSES…
  • + + A
    e|----------------5-----10-9-7--7---0--------0---------5--------2--0------|
    B|-5--3--2--3--5----------------7-------0---------0----------3----------0-|
    G|------------------------------7-------------------------2---------------|
    D|------------------------------7-----2---2-----2---2-----------0-----2---|
    A|----0-----2-----4--0----------0-----------------------------------------|
    E|----------------------------------4--------4---------2-----------4------|
    
    A…
  • e|-14-----------------------------------------------------------------|
    B|----12~~~--------------------------------17p15-17p15-17p15-17/s⁄7~~-|
    G|----------11h12p11--9-----------12-11~~~----------------------------|
    D|----------------------12~~~~-12-------------------------------------|
    A|--------------------------------------------------------------------|
    E|--------------------------------------------------------------------|
    
    e|------------------------------------------------------------------|
    B|-12p10-12p10-12p10-12/s⁄3~~~-17p15-17p15-17p15-17/s⁄7/s⁄12/s⁄3~~~-|
    G|------------------------------------------------------------------|
    D|------------------------------------------------------------------|
    A|------------------------------------------------------------------|
    E|------------------------------------------------------------------|
    
    {~trill~}
    e|-----------------------------------------------------------------12-|
    B|-5-7h8----------------------------------------13--------------15----|
    G|-------4~~~--7p4-----7/s⁄9--11-12-14/s⁄16~~~-----16--14-16~~--------|
    D|--------------------------------------------------------------------|
    A|--------------------------------------------------------------------|
    E|--------------------------------------------------------------------|
    
    sustain…
  • INTRO
    
    E|-----------------------1/13-10----------------1/13-10-|
    B|------------------------------------------------------|
    G|------------------------------------------------------|
    D|------------------------------------------------------|
    A|------------------------------------------------------|
    E|------------------------------------------------------|
    
    VERSE
    
    E|-----------------------1/13-10------------------1/13-10----------12-10-12-|
    B|--------------------------------------------------------------------------|
    G|--------------------------------------------------------------------------|
    D|--------------------------------------------------------------------------|
    A|--------------------------------------------------------------------------|
    E|--------------------------------------------------------------------------|
    
    E|-----------|
    B|-----------|
    G|--7----7-7-|
    D|--0----0-0-|
    A|--5----5-5-|
    E|-----------|
    
    CHORUS
    
    Repeat…
  • B/Eb C#6
    The scent grows richer,
    B6 A#m7
    he knows he must be here,
    E/G# Ebm/F#
    He finds a long passageway lit by
    Fm7/5-
    chandelier.
    
    B/Eb C#6
    Each step he takes, the perfumes change
    B6 A#m7
    From familiar fragrance to flavours…
  • Intro: Em - C - D - Bsus4 - Em - D - Bm - C
    
    
    
    Verses:
    
    
    Em C
    Well the key to my survival
    D B
    Was never in much doubt
    Em D
    The question was how I could keep sane
    B C
    Trying to find a way out
    
    
    Em C
    Things were never easy…
  • Intro/Verse: 
    This is the main riff for most of the song. 
     
    C C G G 
    e:------------| 
    B:------------| 
    G:--5-5-------| D:--5-5--5--5-| 
    A:--3-3--5--5-| 
    E:--3-3--3--3-| 
     
    or: 
    C C G G F G G C C G G Bb C 
    e:----------------|-------------|-------------|------------------|…
  • Intro
    |-------------------------------⁄⁄⁄-------------------------|
    |-------------------------------⁄⁄⁄-4----4------4444444444--|
    |--3--/4--------4--/6-------8---⁄⁄⁄-5----5------5555555555--|
    |--4--/6--------6--/8------10-------5----5------5555555555--|
    |--4--/6--------6--/8------10-------3----3------3333333333--|
    |--2--/4--------4--/6-------8-------------------------------|
    
    |--------------------------|
    |--------------------------|
    |--------------------------|…
  • Intro.......2 Times.......
    
    E|--0----------------0-|
    B|--0--------------0---|
    G|--8------------8-----|
    D|--9----------9-------|
    A|--9--------9---------|
    E|--0------0-----------|
    
    Verse**....
    
    E|--0-------------------------0-|
    B|--0----------------------0----|
    G|--8--------------8-----8------|
    D|--9--------9--------9---------|
    A|--9------9----9---------------|
    E|--7----7----------------------|
    
    Chorus'**....
    
    E|--0--0--7--0--7--0----0--0--9--0--9--0-|
    B|--0--0--0--0--0--0----0--0--0--0--0--0-|
    G|--6--6--6--6--6--6----8--8--8--8--8--8-|
    D|--7--7--7--7--7--7----9--9--9--9--9--9-|
    A|--7--7--7--7--7--7----9--9--9--9--9--9-|
    E|---------------------------------------|
    
    E|--0--0--7--0--7--0----0--0--9--0--9--0-|
    B|--0--0--0--0--0--0----0--0--0--0--0--0-|
    G|--6--6--6--6--6--6----8--8--8--8--8--8-|
    D|--7--7--7--7--7--7----9--9--9--9--9--9-|
    A|--7--7--7--7--7--7----9--9--9--9--9--9-|
    E|---------------------------------------|
    
    EM…
  • ( G/B D/A A/G F#m A7/E Dmaj7 A/C G/B A A6 A7 A )
    
    Bm7 F#m G A
    It seems in a moment, your whole world can shatter
    Bm7 Em7 D/F# G
    like morning dreams they just disappear
    D/F# G G6 F#m7 A7/E A/C#
    like dust in your hand falling…
  • Softly, and fade up (Repeat with mellotron strings)
    e|-5--------------------------------------------------------------|
    B|-6////////////////////////////////////////////////////////////--|
    G|-7////////////////////////////////////////////////////////////--|
    D|-0--------------------------------------------------------------|
    A|----------------------------------------------------------------|
    E|----------------------------------------------------------------|
    (Tremolo…
  • [----------------------]
    [----3-2-3--5-7-5--3-2-]
    [--2-2------4------0---]
    [----0------5------2---]
    [-----------0------0---]
    [----------------------]
    
    
    Sunday at six when they close both the gates a widowed
    Church and its…
  • G / Gmaj7 / C/G / Gsus / G / Gmaj7 / C/G / F D
    
    G Gmaj7 C/G Gsus
    Like the dust that settles all around me
    
    G Gmaj7 C/G F D
    I must find a new home
    
    G Gmaj7 C/G Gsus
    The ways and holes that used to give me shelter
    
    E A B /…
  • NOTE: All chords throughout the entire song use Bb as the melody note
    Chord spellings (in tab):
    
    Cbma7 Gbma7 E Eb Db Cb Bb C D Gm Cm F11
    ----6-----6---6---6----6----6---6----6----6----6---6----6--
    ----4-----6---9---8----6----4---6----5----7----3---4----4--
    ----4-----6---9---8----6----4---7----5----7----3---5----5--
    ----4-----4---9---8----6----4---8----5----7----5---5----3--
    -----------------------------------------------------------
    -----------------------------------------------------------
    
    
    Intro:…
  • INTRO : [Emadd4]
    
    --x--
    --x--
    --2--
    --2--
    --2--
    --0--
    
    
    [Em]Creeping up the blind side, sh[D6/E(*)]inning up the wall
    [D6/E]stealing thru the dark of n[Em]ight
    [Em]Climbing thru a window, st[D6/E]epping to the floor
    [D6/E]checking…
  • C F Gsus4 D7
    
    Verse 1
    -------
    Cm D#
    Fm G Cm
    Cm D#
    Fm G Cm
    
    Break:
    -------
    Cm A# G# A# G# Cm A# G# A# Cm
    
    Verse 2 like Verse 1
    --------------------
    
    Repeat Break
    ------------
    
    Chorus
    --------
    C F
    C Gsus4 D7 F C
    F
    C Gsus D7
    F
    
    Verse…
  • INTRO : |Gmadd2|Cm6+7|C6+7|Bbmaj7|Gmadd2+6|Ebsus4|Ddim6|
    
    (Ddim6)All the pumping's nearly over for my (Gmadd2)sweet heart,
    (Cm6+7)This is the one for (C6+7)me,
    (Bbmaj7)Time to meet the chef,
    (Gmadd2+6)O boy! (Ebsus4)running…
  • [Em]
    ¦-----¦--------------------¦------------------¦-----------¦
    ¦-----¦--------------------¦------------------¦-----------¦
    ¦-----¦--------------------¦------------------¦-----------¦
    ¦-----¦-----------.--------¦--5-----.---------¦.----------¦
    ¦---sl¦.-7-5----5-7-----…
  • Dm7 Bb Dm7 Bb C/G
    
    Dm7 Bb Dm7 Bb C/G
    Please don't ask me how I feel, I feel fine
    
    Dm7 Bb Dm7 Bb C/G
    Oh I cry a bit, I don't sleep too good, but I'm fine
    
    Eb6 Fm Eb6 Bb
    When can I see you? When can I touch you?
    
    Dm7 Bb Dm7…
  • Em A7
    Pick me up, put me down
    
    Em A7
    Push me in, turn me round
    
    Em A7
    Switch me on, let me go
    
    Em A7 D d
    I have a mind of my own
    
    
    D F#M
    In hiding
    
    G Em C
    Far from the city of night
    
    D7 G
    and the factories of truth
    
    Bm
    I…
  • B F#(add G#) D#m
    Here am I, who while away the mornings, since you've gone
    
    C#m G#m B F#
    Too long have I lain alone, not knowing which way to turn
    
    B F#(add G#) D#m
    And there you are, quite sure that you were right
    
    C#m…
  • (1)
    Dm7 C/D
    Like father, like son
    
    Dm7 C/D
    Not flesh nor fish nor bone, a red rag hangs from an open mouth
    
    Dm7 C/D
    Alive at both ends but a little dead in the middle
    
    Dm7 C/D
    A-tumbling and a-bumbling he will go
    
    Em7/A…
  • C#m / G#m / F#m / G#m /
    
    C#m G#m F#m G#m
    Many too many have stood where I stand
    
    C#m G#m F#m G#m
    Many more, will stand here too
    
    F# C#
    I think what I find strange is the way
    
    D#m G F#
    You built me up and knocked me down…
  • Intro(which is like the chorus)
    
    Bb Eb | Bb Eb F| x4
    
    Lyric
    G D Bb F
    Got out of bed, wasn't feeling too good
    C Cm Bb
    With my wallet and my passport, a new pair of shoes
    G D Bb F
    The sun was shining so I head for the park
    C…
  • [Riff 1] 1x
    [Riff 2] 2x
    
    [Riff 2] 2x with lyrics:
    When you're asleep they may show you
    Aerial views of the ground,
    [Riff 3] 1x with lyrics:
    Freudian slumber empty of sound.
    
    [Riff 4] 1x
    [Riff 5] 1x
    
    [Riff 2] 2x with lyrics:
    Over…
  • Intro: alternating between Em and G
    
    G Em
    There's something solid forming in the air,
    G Em
    And the wall of death is lowered in Times Square.
    C Em
    No-one seems to care,
    Am Em
    They carry on as if nothing was there.
    
    B/G G5
    The…
  • E(add 2): Guitar chord spelling: 0 2 4 1 0 0
    
    
    E(add 2)
    Seems they're letting him out next year
    
    He's behaving himself I hear
    
    Governor Conway says it will be fine
    
    Just as long as he can tow the line.
    Bm
    So it's the same…
  • ( Dm Em7 F6 Am G ) 3x
    ( C )
    
    Dm Em7 F6 Am G
    There must be some misunderstanding
    Dm Em7 F6 Am G
    There must be some kind of mistake
    Dm Em7 F6 Am G
    I waited in the rain for hours
    C
    And you were late
    
    Dm Em7 F6 Am G
    Now it's…
  • Intro: Cm / / / | Bb / / / | Ab / Bb / | Cm / / / | Bb / / / | Ab / Bb
    / | Cm / / / |
    Cm Fm
    What was it you said to me
    Cm G7
    Back in the days when things looked fine
    Cm Fm
    'bout how we would be to - gether
    Cm G7
    Until we…
  • Intro:
    ======
    
    1 - - - 2 - - - 1 - - - 2 - - - 1 - - - 2 - - -
    Dm C Bb
    -|10----------------------8-----------------------1-----------------------|
    -|10----------------------8-----------------------3-----------------------|
    -|10----------------------9-----------------------3-----------------------|
    -|------------------------------------------------3-----------------------|
    -|------------------------------------------------------------------------|
    -|------------------------------------------------------------------------|
    
    1…
  • ( Bm7 Em/B F#m/B Bm7 Em/B F#m/B Bm7 )
    
    Dsus4 A7
    Oh, don't you know, I've been on my own
    F#m7
    But I'm coming home.
    C G Dsus4
    And I'd like you to be there,
    A7
    I feel a little cold in the air,
    F#m7
    And you're not anywhere.
    C…
  • C/A(3rd fret) / / / G / / /
    
    C/A G
    Lay your body down upon the midnight snow
    C/A G
    Feel the cold of winter in your hair
    Cmaj7 E7sus Gm
    Here in a world of your own, in a casing that's grown
    C/A Gm C/A
    To the children's delight,…
  • G / Gmaj7 / C / D / G / Gmaj7 / C / D /
    
    G Am G Am
    Stay with me, my love I hope you'll always be
    
    Dm G C Am7 D
    Right here by my side, if ever I need you, oh my love
    
    G Am G Am
    In your arms, I feel so safe and so secure
    
    Dm…
  • INTRO
    
    E|------------------------------------------------------|
    B|------------------------------------------------------|
    G|------------------------------------------------------|
    D|--2--------0---7---2--------0---7---2-------0---7---2-|
    A|------------------------------------------------------|
    E|------------------------------------------------------|
    
    VERSE
    
    E|----------------------------------------------------|
    B|----------------------------------------------------|
    G|----------------------------------------------------|
    D|--2-------0---7---2-------0---7---2-------0---7---2-|
    A|----------------------------------------------------|
    E|----------------------------------------------------|
    
    CHORUS/ENDING
    
    E|---0------0--------------0-----0--------------0------0--------------0-----0-|
    B|---0------3--------------0-----3--------------0------3--------------0-----3-|
    G|---1------2--------------1-----2--------------1------2--------------1-----2-|
    D|---2------0--------------2-----0--------------2------0--------------2-----0-|
    A|---2---------------------2--------------------2---------------------2-------|
    E|---0---------------------0--------------------0---------------------0-------|
    
    MIDDLE
    
    E|-----------------------------------------------------------------------------|
    B|---8--5-8--8--8--10--8----8--5-8--8--8--10--8----8--5-8--8--8--10--8----8--5-|
    G|-----------------------------------------------------------------------------|
    D|-----------------------------------------------------------------------------|
    A|-----------------------------------------------------------------------------|
    E|-----------------------------------------------------------------------------|
    
    E|----------------------------------------------------------|
    B|---8--8--8-10--8--5-8--8--8--10--8----8--5-8--8--8--10--8-|
    G|----------------------------------------------------------|
    D|----------------------------------------------------------|
    A|----------------------------------------------------------|
    E|----------------------------------------------------------|…
  • Bm / C#7 / Bm / Em7 /
    
    B E
    No cloud, a sleepy calm
    A F#m G#m B
    Sunbaked earth that's cooled by gentle breeze, and trees
    F#m B Bm C#7
    With rustling leaves, only endless days without a care
    Bm Em7
    Nothing must be done
    
    B E
    Silent,…
  • E|-------------------| This is what Steve Hackett plays
    B|--2---3---2---0----| on his sitar in the verses.
    G|----2---2---2---0--|
    D|-------------------|
    A|-------------------|
    E|-------------------|
    
    I hope this is right.
    
    This…
  • Intro:
    Guitar plays in a kind of fast fingered tremolo and stops just
    to enter in the 1st phrase. Played on spanish guitar.
    
    Dm
    E||-10------------------|-----------------------|-----------------------|
    B||-10------------------|-----------------------|-----------------------|
    G||-10------------------|-----------------------|-----------------------|
    D||-0-------------------|-----------------------|-----------------------|
    A||---------------------|-----------------------|-----------------------|
    E||---------------------|-----------------------|-----------------------|
    
    Phrase…
  • E B Esus E
    Bluegirls come in every size, some are wise and some otherwise
    
    B Dm E
    They got pretty blue eyes, for an hour a man may change
    
    Dm C D G
    For an hour her face looks strange, looks strange, looks strange
    
    E B
    Marching…
  • [Bb] [Ebm] [C#] [Bbm] [Ebm]
    
    [Ebm]Do you see the face [C#]on the TV
    [Bbm]screen coming at you [Ebm]every Sunday
    [Ebm]See the face on the [C#]billboard, [Bbm]that man is [Ebm]me
    [Ebm]On the cover of the [C#]magazine,
    [Bbm]there's…
  • -----------------------------|-----------------------------|
    -----------------------12----|-----------------------------|
    ------------------12---------|---------12-------------12---|
    -------------12--------------|----------------12-----------|
    -----------------------------|---7-------------------------|
    ------7----------------------|-----------------------------|
    
    -----------------------------|-----------------------------|
    ------------------------12---|-----------------------------|
    ------------------12---------|---------12------------12----|
    -----------12----------------|----------------12-----------|
    -----------------------------|---7-------------------------|
    ----7------------------------|-----------------------------|
    
    -----------------------------|------------------------------|
    ----------------------12-----|-------------------0----------|
    ---------------12------------|------------------------2-----|
    ---------12------------------|---------0--------------------|
    -----------------------------|------------------------------|
    ---7-------------------------|----3-------------------------|
    
    -----------------------------|-------------------------------|
    ----0------------0-----------|--------------------0----------|
    -----------------------0-----|--------------------------2----|
    ---------0-------------------|-----------0-------------------|
    -----------------------------|-------------------------------|
    -----------------------------|---3---------------------------|
    
    -----------------------------|------------------------------|
    ------0---------------0------|------------------1-------0---|
    --------------------------0--|------------------2-----------|
    ------------0----------------|---------2--------------------|
    -----------------------------|---0--------------------------|
    -----------------------------|------------------------------|
    
    -----------------------------|------------------------------|
    ---1---------------1---------|-------------------1------0---|
    -----------------------------|-------------------2----------|
    ----------2------------------|--------0---------------------|
    ---0-------------------------|------------------------------|
    -------------------3-----0---|---2--------------------------|
    repeat…
  • D F#m Bm
    There's nothing here I can understand
    
    D F#m Bm
    And no-one cares I'm a lonely man
    
    G Bm7
    I touch your face and I don't know why
    
    G Bm7 E Em G
    I call your name but you're going by now I'm alone again
    
    D F#m Bm
    I…
  • INTRO:
    (D 9) (Dmaj7) (D 9) (Dmaj7) (C) (Cmaj7) (C) (Cmaj7)
    | 1 & 2 & 3 & 4 & | 1 & 2 & 3 & 4 & |
    =================================================================
    |-----------------0-------------|-----------------0-------------|
    |-3-----2-----3---------2-----3-|-1-----0-----1---------0-----1-|
    |-----2---------------2---------|-----0---------------0---------|
    |-0---------0-----0---------0---|-------------------------------|
    |-------------------------------|-3---------3-----3---------3---|
    |-------------------------------|-------------------------------|
    
    OPTIONAL:
    (D…
  • Esus E C#m A
    The curtains are drawn now the fire warms the room
    Am Esus Bm C#m
    Meanwhile, outside, wind from the north-east chills the air
    F#m D A
    It will soon be snowing out there
    Am Esus Bm C#m
    And some, there are, cold…
  • *intro*
    
    Abmaj7 Ab(b5) Abmaj7 Ab(b5) Gsus4
    
    
    *first verse*
    
    Abmaj7/Eb Eb
    Hold on my heart
    
    Abmaj7 Bb/Eb
    just hold on to that feeling
    
    Gm7 Fm7
    we both know we've been here before
    
    Cm7 Bb/C
    we both know what can happen
    
    Abmaj7/Eb…
  • F# pattern D#m pattern C# pattern E pattern
    e----9-7-9--------6-4-6--------4-2-4----------0--------------------------
    B---7-7-7-7------4-4-4-4------2-2-2-2--------0-0-------------------------
    G-------------------------------------------1---1------------------------
    D------------------------------------------2-----2-----------------------
    A--9------------6------------4------------2-------2----------------------
    E------------------------------------------------------------------------
    
    Below…
  • C Em Am
    Slowly I stretch out my arms, freely
    C Em Am
    Shadows of night disappear
    Dm Em G
    Rise from the slough of despond find the pathway
    Dm Em G
    Guiding us forward through pastures of dream day
    Dm Em G
    Days to enjoy, peace…
  • Intro: A Am
    
    Verse:
    
    D E G
    I must've dreamed a thousand dreams
    A C
    been hunted by a million screams
    D Em
    but I can hear the marching feet
    Em D
    they're moving into the street.
    
    Pre-Chorus:
    D Em
    there's too many men
    Em7 A…
  • -|12----11----9--------12----14----16-|
    -|------------------------------------|
    -|---9-----8-----9--------9-----11----|
    -|------------------------------------|
    -|------------------------------------|
    -|------------------------------------|
    ________________
    |1.
    ||--12-p8-5---2-h3-5---4-7---1-4----------------2-----------------11-14-|
    ||.--------------------------------2-p0---0-2-----4-2----11-12-14-------|
    ||--------------------------------------3-------------------------------|
    ||.---------------------------------------------------------------------|
    ||----------------------------------------------------------------------|
    ||----------------------------------------------------------------------|
    
    
    -|9-9-9-9-10--------12---/14-12-------11-8----|
    -|-----------10-9-------------------9------9--|
    -|----------------9----9----------8-----------|
    -|--------------------------------------------|
    -|--------------------------------------------|
    -|--------------------------------------------|
    
    
    -|--------------------------------9--------------4-9-p8-----11-11-11-/13---|
    -|9-h11-9-h11-9-h11-9-h11-9-h11-9---5-/9-5---7-4-------------------------9-|
    -|------------------------------------------------------8------------------|
    -|-------------------------------------------------------------------------|
    -|-------------------------------------------------------------------------|
    -|-------------------------------------------------------------------------|
    ____
    C…
  • Eb Bbm7 Ab
    I am the one who guided you this far
    
    Bb Gm Dm
    All you know and all you feel
    
    Em Am
    Nobody must know my name
    
    Dm Ab Eb
    For nobody would understand and you kill what you fear
    
    Bbm7 Ab
    I call you for I must leave
    
    Bb…
  • (Am6)Walking across the sitting-room, I (Bsus4)turn the tele(B)vision off.
    (Bm)Sitting beside you, I look in(Bm/F#)to (Daug5/G#)your (F#/A#)eyes.
    (Am6)As the sound of motor cars (Bsus4)fades in the (B)night time,
    I (D#m/A#)swear…
  • Intro & Main
    
    e|-------------------------------------------------------------------|
    B|-------------------------------------------------------------------|
    G|-------7-9-------7-------------------------------------------------|
    D|--7/9-------7/9-----7----------------------------------------------|
    A|-------------------------------------------------------------------|
    E|-------------------------------------------------------------------|…
  • e|----------7--0---12-12-10-9-----------------------------------------|
    B|-7--9-10--------------------12--------------------------------------|
    G|-------------------------------9------------------------------------|
    D|---------------------------------12-11-9--4-6-7-6-7-6-7-6-7-6-------|
    A|--------------------------------------------------------------------|
    E|--------------------------------------------------------------------|
    
    |---------------------------------------------------------------------|
    |---------------------------------------------------------------------|
    |---------------------------------------------------------------------|
    |-4--6--7--6--7--6--7--6--7--6---------------------7--6--9--7-11--9-12|
    |--------------------------------------------7--7---------------------|
    |--------------------------------2--4--5--7---------------------------|
    
    sl…
  • Ab Ab/G Fm7
    I'm counting out time,
    Ab/Eb C#7+
    Got the whole thing down by numbers.
    Ab/C Bb
    All those numbers! Give me guidance!
    Eb7 Ab
    O Lord I need that now.
    Ab/G Fm7
    The day of judgement's come,
    Ab/Eb C#7+
    And you can…
  • C  /  Em  /  Am  /  F  /  C  /  Em  /  Am  /  F  /
    
    
                    C      Em  Am  F        C          Em    Am    F
         I feel it leading me,   away to I don't know where
                     C        Em  Am         F…
  • Chord Voicings:
        
            Ab  C   C6 Cmaj7 C/E Dm7 Em7  F Fmaj7 F#m7-5 G
        e---4---0---0----0----0---1---0---1---0-----0----3--
        B---4---1---1----0----1---1---3---1---1-----1----0--
        G---5---0---2----0----0---2---0---2---2-----2----0--…
Наверх