Аккорды Гера Грач - Осень

Добавлено: @romashka
Дата добавления: 11 Июля 2019г.
Рейтинг:
0.0
Просмотров: 8
Транспонировать - +
Соло-вступление:
Cm F  Bb Gm  Cm    D   Gm   G7 
e|-------------------------------
B|-4-1--3-------3----------------
G|--0-2--2-3-0---2-3----0-2-3--4-
D|------------------4--4---------
A|-------------------------------
E|-------------------------------

Cm F  Bb  Gm Cm   D   Eb      D
---------------------------------
-4-1--3-------4------------------
--0-2--2-3-0---2-3----0-2-3--5-2-
------------------4--4-----------
---------------------------------
---------------------------------

         Gm             G7
Жизнь горит как спичка, зажжённая на поле…
      Cm            F
И унесёт судьбы поворот:
          Bb       Eb
Прямо пройдешь и через брод,
       Cm                             G
А до беды всего лишь шаг, до горькой доли… 

           Cm                         F
     Снова осень наденет свой жизни наряд,
              Bb                              Gm
     Лист закружит и с ветром влетит к нам в окно.
            Cm                    D
     Снова вольные птицы на юг улетят,
            Gm                        G7
     Только я остаюсь с перебитым крылом.
           Cm                         F
     Снова осень наденет свой жизни наряд,
              Bb                              Gm
     Лист закружит и с ветром влетит к нам в окно.
            Cm                    D
     Снова вольные птицы на юг улетят,
            Gm       D               Gm
     Только я остаюсь с перебитым крылом.

         Gm              G7
Кто-то был мне другом, кто-то был мне братом – 
         Cm         F
Не разберешь и не поймешь,
          Bb         Eb
Только тайга да финский нож.
          Cm                         G
Только вперед, подарок судьбы, под автоматом…

           Cm                         F
     Снова осень наденет свой жизни наряд,
              Bb                              Gm
     Лист закружит и с ветром влетит к нам в окно.
            Cm                    D
     Снова вольные птицы на юг улетят,
            Gm                        G7
     Только я остаюсь с перебитым крылом.
           Cm                         F
     Снова осень наденет свой жизни наряд,
              Bb                              Gm
     Лист закружит и с ветром влетит к нам в окно.
            Cm                    D
     Снова вольные птицы на юг улетят,
            Gm       D               Gm
     Только я остаюсь с перебитым крылом.

проигрыш:
Cm                     D                Gm
-------------------------------------------
-1-3-4-3-1-4--1-3-4-3-1------1---1---1-4-3-
-----------------------2--2-3-2-3-2-3-2----
-------------------------------------------
-------------------------------------------
-------------------------------------------

 Gm                G7                G
------------------------------------3-3-1--
----1---1---1-4-3--0-1-3-1-0-3--0-1--------
-2-3-2-3-2-3-2-----------------------------
-------------------------------------------
-------------------------------------------
-------------------------------------------

После проигрыша следует соло из вступления:
Cm F  Bb Gm  Cm    D   Gm   G7 
e|-------------------------------
B|-4-1--3-------3----------------
G|--0-2--2-3-0---2-3----0-2-3--4-
D|------------------4--4---------
A|-------------------------------
E|-------------------------------

Cm F  Bb  Gm Cm   D   Eb      D
---------------------------------
-4-1--3-------4------------------
--0-2--2-3-0---2-3----0-2-3--5-2-
------------------4--4-----------
---------------------------------
---------------------------------

        Gm               G7
Как мечтал я в детстве… Как в футбол играли
       Cm            F
Мы со шпаной ранней весной.
       Bb            Eb
Ну, а потом – тот выпускной,
         Cm                        G
Драка и нож. Как быстро всё мы потеряли…

           Cm                         F
     Снова осень наденет свой жизни наряд,
              Bb                              Gm
     Лист закружит и с ветром влетит к нам в окно.
            Cm                    D
     Снова вольные птицы на юг улетят,
            Gm                        G7
     Только я остаюсь с перебитым крылом.
           Cm                         F
     Снова осень наденет свой жизни наряд,
              Bb                              Gm
     Лист закружит и с ветром влетит к нам в окно.
            Cm                    D
     Снова вольные птицы на юг улетят,
            Gm       D               Gm
     Только я остаюсь с перебитым крылом.

Для полноты звучания рекомендую брать аккорды G и G7 с барре:

аккорд G7
E||---|---|-*-|---|---|---|
B||---|---|-*-|---|---|---|
G||---|---|-*-|-*-|---|---|
D||---|---|-*-|---|---|---|
A||---|---|-*-|---|-*-|---|
E||---|---|-*-|---|---|---|
    I  II  III  IV  V  VI

аккорд G
E||---|---|-*-|---|---|---|
B||---|---|-*-|---|---|---|
G||---|---|-*-|-*-|---|---|
D||---|---|-*-|---|-*-|---|
A||---|---|-*-|---|-*-|---|
E||---|---|-*-|---|---|---|
    I  II  III  IV  V  VI

На аккомпанирующей гитаре к соло во вступлении можно 
вместо аккордов Eb и Bb брать для разнообразия 
соответственно Ebmaj7 и Bbmaj7:

аккорд Ebmaj7
E|---|---|-*-|---|---|---|
B|---|---|-*-|---|-*-|---|
G|---|---|-*-|-*-|---|---|
D|---|---|-*-|---|-*-|---|
A|---|---|-*-|---|---|---|
E|---|---|---|---|---|---|
   IV  V  VI  VII VIII IX

аккорд Bbmaj7
E||-*-|---|---|---|---|---|
B||-*-|---|-*-|---|---|---|
G||-*-|-*-|---|---|---|---|
D||-*-|---|-*-|---|---|---|
A||-*-|---|---|---|---|---|
E||---|---|---|---|---|---|
    I  II  III  IV  V  VI
comments powered by Disqus
Наверх