Аккорды «GG Allin»

GG Allin
Это история о человеке, по праву считающимся самым яростным и бескомпромиссным деятелем рок-н-ролла. Jesus Christ Allin на протяжении всей своей жизни доказывал собственное утверждение о том, что он является настоящим и единственным богом, создавшим рок-н-ролл и теперь пришедшим в наш мир, чтобы вырвать его из рук продажных дельцов и предателей. С самого детства он начал слушать рок по радиоприемнику своей матери, однако, немного повзрослев, разочаровался в своих кумирах и решил, что он сам никогда… Читать полностью... Это история о человеке, по праву считающимся самым яростным и бескомпромиссным деятелем рок-н-ролла. Jesus Christ Allin на протяжении всей своей жизни доказывал собственное утверждение о том, что он является настоящим и единственным богом, создавшим рок-н-ролл и теперь пришедшим в наш мир, чтобы вырвать его из рук продажных дельцов и предателей. С самого детства он начал слушать рок по радиоприемнику своей матери, однако, немного повзрослев, разочаровался в своих кумирах и решил, что он сам никогда не будет продажным и переменчивым как они. Его анти-социальные задатки обнаружились еще в школе, и, начав играть в группе, Allin сделал свой первый шаг на путь войны с обществом и шоу-бизнесом. И он не сошел с этого пути до самой смерти. "Мое тело - это храм рок-н-ролла, моя плоть, кровь и флюиды моего тела - вероисповедание для людей", - говорил он. В отличии от "рокеров", снискавших признание благодаря написанию якобы шокирующей музыки, появлению на публике в пьяном виде и редким потасовкам в барах, GG действительно вел войну против всего, что его окружало: против общества, мэйнстрима и так называемого андеграунда. Он калечил себя на сцене, устраивал драки с публикой, практически после каждого концерта арестовывался полицией, и неоднократно попадал за решетку. Ему были предъявлены обвинения более чем в 7 штатах. Владельцы клубов, где проходили концерты, редко осмеливались позволить ему повторно выступать у них, зачастую потому, что от помещения клуба в прямом смысле мало что оставалось. "Я уверен, что те, кто верит в меня - настоящие нон-конформисты, и, если мы сможем собрать много таких людей, то мы сможем начать войну", - говорил GG Allin. В его действиях и словах не было ни малейшего эпатажа или надуманности, так как человек, способный за каждый концерт разбивать десяток бутылок о собственную голову, уродовать свое лицо и тело (на одном из концертов GG выбил себе передние зубы, колотя по лицу микрофоном), вряд ли будет думать о приобретении славы и популярности в обществе. Его музыка всегда была предельно жесткой и злой, тексты были наполнены первобытной ненавистью, направленной против общества. Ранняя лирика повествовала об извращениях, садизме и убийствах, позднее добавились и политические мотивы, не раз встречались высказывания расистского характера. Kill the police-Destroy the System (Убивай полицейских - разрушай систему), Legalise Murder (Легализуйте убийства) - таковы названия его песен. GG Allin испражнялся и мастурбировал на сцене, швырял в публику собственные экскременты и пожирал их, до предела накачивал свое тело алкоголем и наркотиками. Когда у вас нет персональных ограничений и законов, у вас есть горизонт для того, чтобы творить - такова была его логика. Выступления GG Allina редко длились долгое время, так как, исполнив несколько песен, GG бросался в толпу зрителей, избивая без разбора всех, кто ему попадался и, получая удары сам. " Мой разум - автомат, мое тело - пули, моя цель - публика " - утверждал Allin. Ему не раз удавалось обратить всю толпу в бегство, а ведь надо учесть, что на такие концерты ходили далеко не учащиеся воскресных школ. "Приходите на свой собственный риск. Все знают, что может произойти. " Затем он обычно выскакивал на улицу и атаковал первых встречных. К приезду полиции место выступления чаще всего представляло полнейший хаос, посреди которого метался голый человек покрытый смесью пота, алкоголя, своей и чужой крови и собственных экскрементов. Если он был не на концерте и не в студии, он находился в тюрьме или больнице. Тюрьма стала, поистине, домом для GG Allin: " Там я перезаряжаю свое оружие." "Тюрьма - ничто для меня. В любом случае, я пользуюсь здесь уважением. Мы все отверженные здесь. Некоторые люди тут - вполне ничего. Таких больше здесь, чем снаружи". Доктора в больницах, куда постоянно попадал GG после своих выступлений, не переставали удивляться, как их пациент все еще жив и способен ходить. Сам Allin объяснял это тем, что попросту не чувствует боли. GG утверждал, что достигнув вершины, в завершение свой миссии он совершит самоубийство, и многие приходили на концерты, надеясь увидеть обещанный акт суицида, а кто-то надеялся, что GG заберет его с собой. Однако Allin всегда говорил, что все, что он делает, он делает ради самого себя и рок-н-ролла, а не ради публики или кого-то еще. Даже с группами, с которыми он выступал и записывался, GG никогда не поддерживал долгого контакта. "Единственный другом в моей жизни была музыка, которую я создавал. Для меня рок-н-ролл должен быть абсолютным оружием мести. " Друзей у GG действительно было немного, а вот врагов хоть отбавляй. Но GG Allin не был, как многим хотелось бы верить, безмозглым наркоманом и садистом. Он предельно ясно высказывал и аргументировал свои идеи и мысли, прекрасно сознавая свою цель. Крича со сцены о насилии, сексуальных извращениях и убийстве полицейских, он стремился к тому, чтобы являться максимальной угрозой для общества, демонстрировать миру истинное предназначение рок-н-ролла - быть социальным раздражителем. "Я люблю, когда меня ненавидят " - гордо говорил GG Allin. Наркотики, алкоголь и насилие были не целью, а инструментом его борьбы против общества. Вернуть рок-н-ролл в зону боевых действий - таков был его девиз. Именно в связи с этим GG Allin обвинял андеграунд в предательстве и несоответствии своему предназначению. "Люди смотрят на группы типа Guns'n'Roses, Gwar или Cannibal Corpse и думают, что это выглядит шокирующе. Это лживое дерьмо. Все это школьные шуточки, люди в костюмах, играющие в рок-н-ролл, не более.""Я не являюсь частью какой-либо "сцены". То, что я делаю - это реально, это война." GG Allin остался неизвестен большому количеству людей, что объясняется тем, что он никогда не издавал свою музыку на мажорных фирмах, при его жизни записи выходили небольшими тиражами на маленьких независимых лейблах. Действительно, невозможно представить такого человека, подписывающим контракт с бизнесменами из крупной музыкальной компании, зато можно легко представить и даже увидеть современных панк и метал музыкантов, корчащих из себя злобных и брутальных личностей, чтобы потом продаться подороже. "Люди, обладающие властью, пытаются провести перед вами линию: это приемлемо, а это нет. И я - то, что неприемлемо. Потому, что я не подписан с мажорным лейблом. Иными словами, они указывают, что есть андеграунд. Я настоящий андеграунд, и они знают это, но не хотят, чтобы вы знали обо мне, поэтому они и проводят эту границу. Они говорят "все, что хуже этого - запрещено", и никто не заглядывает за эту мнимую границу, но там есть я, я то, что за ней." При этом надо отметить, что многие подпольные издания, такие, как MAXIMUM ROCK'N'ROLL не переставали печатать статьи о GG Allin, хотя его идеи открыто противоречили их убеждениям. "Я написал в MAXIMUM R'N'R письмо в 85 году, когда лежал в больнице в Техасе, и люди были взбешены тем, что мое письмо просто было напечатано. Они много чего не печатали, но мои письма печатали всегда. Они действительно ненавидели меня. Drink, Fight and Fuck(Пей, Дерись и Трахай - одна из самых известных песен GG Allin, своеобразный манифест) - было отнюдь не здорово для них со всеми этими straight edge ребятами, которые их читали (Straight Edge - хардкор-движение, требующее отказа от алкоголя, наркотиков и беспорядочных сексуальных связей). Но они знали, что я все делаю по-настоящему. Я видел так много групп за последние 15 лет. Они говорили: "Мы такие плохие" и исчезали через год, я думаю, моя стойкость доказала, что я не шучу". GG Allin умер в 1993 году в Нью-Йорке после очередного разгрома на концерте, как уверяют, от передозировки. Его нашли мертвым в двух кварталах от места выступления. Многие фэны GG Allina по всему миру не могли поверить в случившееся. GG Allin стал живым воплощением истинного рок-н-ролла во всей его ярости и неукротимости. Он превратил свое существование в мощное орудие, направленное против конформизма, музыкального бизнеса и общества в целом. На протяжении всей жизни он ни разу не пошел на компромисс. Его жизнь, проходившая на сцене или за решеткой, была "темной и опасной", как он и завещал своим последователям. "Мой разум слишком крепок. Им никогда не сломать его. Я делаю то, что я делаю уже 15 лет. Я хотел бы увидеть кого-нибудь, кто делал бы то, что делаю я, хотя бы одну неделю. Одну ночь." После его смерти появилось немало групп, пытающихся в той или иной степени следовать и подражать GG Allin, но, разумеется, никто не смог сравниться с ним в безумии и ярости. Само собой, большинству сильно не понравится вышеизложенное. У всех найдется множество злых, ехидных, ироничных и остроумных высказываний по поводу личности и деятельности GG Allin. Это естественно. Но эти люди могут утешиться тем, что вряд ли кто-то из них осмелился бы высказать в глаза Аллину свои претензии и насмешки. В заключение хотелось бы привести фрагмент интервью, данного Аллином по телефону из тюрьмы Jackson (MI) State Prison в декабре 1992. "Я отправлюсь в тюрьму, я умру за то, во что я верю. Выбросьте все дерьмо из рок-н-ролла и то, что останется - буду Я! Мне не нужен никто. У меня нет никаких влияний, никаких героев, только я сам. Я делаю то, что я хочу. Как много людей могут ЧЕСТНО сказать то же самое?". Скрыть...
Популярные аккорды GG Allin:
алфавиту | просмотрам | случайно
  • INTRO:
    (guitar1)
    e|--------------0-------------3-------------0-----0----0--|
    B|--------------1-------------3-------------1-----1----1--|
    G|--------------0-------------0-------------0-----0----0--|
    D|--------------2-------------0-------------2-----2----2--|
    A|--------------3-------------x-------------3-----3-------|
    E|--------------------------------------------------------|…
  • D                   A
    When I die put that bottle in my hand
    G                           D		  A
    All these years on earth, it was my only friend
    D                       A
    When you dig a hole and gonna bury me
    G…
  • Intro      3x                   1x
    E---------------------|--------------------------|
    B---------------------|--------------------------|
    G----5-----------4----|---5----------------------|
    D----5--5--7--5--4--2-|---5--5--7--5--4--9-------|
    A----3--5--7--5--4--2-|---3--5--7--5--4--9-------|
    E-------3--5--3--2--0-|------3--5--3--2--7-------|
    
    Verse…
  • Main Part/Verses:
    e|--------------------------------------|
    B|--------------------------------------|
    G|--------------------------------------|
    D|--66666666666666--22222222--44444444--|
    A|--66666666666666--22222222--44444444--|
    E|--44444444444444--00000000--22222222--|…
  • Main part/verse:
    e|------------------------------------------------|
    B|------------------------------------------------|
    G|--44444444444-----------------------------------|
    D|--44444444444--555555555--777777777--4444444444-|
    A|--22222222222--555555555--777777777--4444444444-|
    E|---------------333333333--555555555--2222222222-|
    
    
    Chorus:
    e|-------------------------------------------------|
    B|-------------------------------------------------|
    G|-------------------------------------------------|
    D|--55555555555--44444444444--55555555--7777777777-|
    A|--55555555555--44444444444--55555555--7777777777-|…
  • Tuning: Standard
    
    There's a lot of finite details in this song. You're going to have to listen to it 
    to play past the basic riffs. 
    
    Riff A 
    
    e|-----------------|
    B|-----------------|
    G|-----------------|
    D|-----------------|
    A|5/777777777777777|
    E|3/555555555555555|
    
    Riff…
  • Tuning: Standard EADG
    
    
    G                      C
    Laying on the floor in a pool of blood and cum
    G                       D
    My demons lay beside as I kiss them one by one
    G                              C
    Then on that…
  • Tuning: Standard
    
    Note- 0=10 (I did this so it looks a bit better)
    
    Verse Riff: 
    
    e|--------------------------------|
    B|--------------------------------|
    G|--------------------------------|
    D|66666666888888886666666600886666|
    A|44444444666666664444446488664444|
    E|--------------------------------|
    
    Chorus…
  • Intro:
    The "real" intro isn't worth tabbing.
    e|-------------------------|
    B|-------------------------|
    G|-------------------------|
    D|-------------------------|
    A|-------------------------|
    E|--0----6---3-------5-----|
    
    Verses:
    e|--------------------------------------------|
    B|--------------------------------------------|
    G|--------------------------------------------|
    D|--22222222---8888888---5555555555555555-----|
    A|--22222222---8888888---5555555555555555-----|
    E|--00000000---6666666---3333333333333333-(5)-|
    
    Chorus:
    e|----------------------------------|-----------|
    B|----------------------------------|-----------|
    G|--9-----7-----5-------------------|-----------|
    D|--9--9--7--7--5--5----8888888888--|---7-------|
    A|--7--9--5--7--3--5----8888888888--|---7----\--|
    E|-----7-----5-----3----6666666666--|---5----\--|…
  • e|----------------------------------||-------------------------------||
    B|----------------------------------||-------------------------------||
    G|----------------------------------||----6-------4-------8----------||
    D|----6---------4------8------------||----6-------4-------8----------||
    A|----6---------4------8------------||----4-------2-------6----------||
    E|----4---------2------6------------||-------------------------------||…
  • E Standard Tuning (EADGBE)
    
    Intro
    e----------------------------|
    B----------------------------|
    G-10--10--10--10/8--8--8--8--|
    D-10--10--10--10/8--8--8--8--|  X6
    A-8---8---8---8 /6--6--6--6--|
    E----------------------------|
    
    
    
    Chorus
    e-----------------|
    B-----------------|
    G-6---6---5---5---|
    D-6---6---5---5---|…
  • Part 1:
    e|------------------------------------------------------------------||
    B|------------------------------------------------------------------||
    G|--555-----------------------------555-----------------------------||
    D|--555--3-33-----------------------555--5--55--4/555--4/555--------||
    A|--333--3-33----3-33-----3-33------333--5--55--4/555--4/555--------||
    E|-------1-11--0h1-11---0h1-11-----------3--33--2/333--2/333--------||
    
    
    Verses:
    e|----------------|
    B|----------------|…
  • e|-------------------------3-333-3-3333-------------------------------------
    B|--5-5-555-5-55555555555--3-333-3-3333---7-777--7-7-77777777777777---------
    G|--5-5-555-5-55555555555--4-444-4-4444---7-777--7-7-77777777777777---------
    D|--5-5-555-5-55555555555--5-555-5-5555---7-777--7-7-77777777777777---------
    A|--3-3-333-3-33333333333--5-555-5-5555---5-555--5-5-55555555555555---------
    E|-------------------------3-333-3-3333-------------------------------------
    
    e|-------3---------------------------||------------------------|
    B|--3-3--3------3-3----5--------5----||------------------------|
    G|--4-4--4-4-4--4-4--6-6--6-6---6-6--||---66666666666666666----|
    D|--5-5--5-5-5--5-5--7-7--7-7---7-7--||---77777777777777777----|
    A|--5-5--5-5-5--5-5--7-7--7-7-7-7-7--||---77777777777777777----|
    E|--3-3--3-3-3--3-3--5-5--5-5-5-5-5--||---55555555555555555----|…
  • Tuning: Standard
    
    Riff A ("Garbage dump, oh garbage dump") 
    
    e|--------------------------------|
    B|--------------------------------|
    G|--------------------------------|
    D|88888888333333333333333388888888|
    A|88888888333333333333333388888888|
    E|66666666111111111111111166666666|
    
    Play…
  • Verses:
    e|----------------------------------------------------------------------
    B|----------------------------------------------------------------------
    G|--------------------------------5555555555----------------55555555555-
    D|--33333333333--333333333333333--5555555555--333333333333--55555555555-
    A|--33333333333--333333333333333--3333333333--333333333333--33333333333-
    E|--11111111111--111111111111111--------------111111111111--------------etc.
    
    
    Chorus:
    e|----------------------------------------------------------------------
    B|----------------------------------------------------------------------
    G|---------------------555555555555------------333333333----------------
    D|--33333333333333333--555555555555--33333333--333333333--5555555555555-
    A|--33333333333333333--333333333333--33333333--111111111--5555555555555-
    E|--11111111111111111----------------11111111-------------3333333333333-
    
    e|-----------------------------------------------------------------|
    B|-----------------------------------------------------------------|
    G|------------------55555555555555---------------------------------|
    D|--33333333333333--55555555555555--88888888888--7--8--7--5--3-----|
    A|--33333333333333--33333333333333--88888888888--7--8--7--5--3-----|
    E|--11111111111111------------------66666666666--5--6--5--3--1-----|
    
    
    Play…
  • Intro/verses:
    e|---------------------------------------------3---------|
    B|--7-----7-----7-----7-----7-----7------5-----3------7--|
    G|--7-----7-----7-----7-----7-----7------5-----4------7--|
    D|--7-----7-----7-----7-----7-----7------5-----5------7--|
    A|--5-----5-----5-----5-----5-----5------3-----5------5--|
    E|---------------------------------------------3---------|
    
    
    Chorus:
    e|--------------------3-33333-333333-33------------------------3--(3)--|
    B|--5-5-555555-55555--3-33333-333333-33--7-7777-7-7-77777-777--3--(3)--|
    G|--5-5-555555-55555--4-44444-444444-44--7-7777-7-7-77777-777--4--(4)--|
    D|--5-5-555555-55555--5-55555-555555-55--7-7777-7-7-77777-777--5--(5)--|
    A|--3-3-333333-33333--5-55555-555555-55--5-5555-5-5-55555-555--5--(5)--|
    E|--------------------3-33333-333333-33------------------------3--(3)--|…
  • E-----------------------------------------------
    B-----------------------------------------------
    G-------------3-5-------------------------------
    D-5-----------3-5-------------------------------
    A-5-(6 times)-1-3-------------------------------
    E-3---------------------------------------------…
  • e|-----------------------------|
    B|-----------------------------|
    G|-----------------------------|
    D|--7-----2-----3----5----7----|
    A|--7-----2-----3----5----7----|
    E|--5-----0-----1----3----5----||
       (A)   (E)…
  • C          D                G
    Everybody knows that I'm a scumbag
    G                                  C 
    They won't come and see me in this dive
    C             G          D                 Em
    Everyone's afraid of what…
  • Intro:
    e|------------------------------------------------||-------------------|
    B|------------------------------------------------||-------------------|
    G|---------(777)----------------------------------||-------------------|
    D|----------77777----------7777777---------77777--||--9--9--9--9--9--9-|
    A|--777777--00000--777777--0000000--777777-00000--||--9--9--9--9--9--9-|
    E|--000000---------000000-----------000000--------||--7--7--7--7--7--7-|
    
    1st…
  • Intro/verses:
    e|-------------------------------------------------------------------------|
    B|-------------------------------------------------------------------------|
    G|------------------------------777777777777777777--2222222--555-----------|
    D|--22222222222--5555555555555--777777777777777777--2222222--555--5555555--|
    A|--22222222222--5555555555555--555555555555555555--0000000--333--5555555--|
    E|--00000000000--3333333333333------------------------------------3333333--|
    
    
    Chorus:
    e|--------------------------------------|…
  • The intro riff is also the riff played after verse 1 and 2.
    
    
                Intro
    |-----------------------------|
    |-----------------------------|
    |-----------------------------|
    |---7--5--7/-----7--5--7/-----|
    |---5--3--5/-----5--3--5/-----|
    |-----------------------------|…
  • Intro:
    e|------------------------------------------|
    B|------------------------------------------|
    G|------------------------------------7-----|
    D|--9-9--9--9-9--9--9-9--9--9-9--9----7-----|
    A|--7-7--7--7-7--7--7-7--7--7-7--7----5-----|
    E|------------------------------------------|…
  • e|-----------------------------------|
    B|-----------------------------------|
    G|--9----5----7----------------------|
    D|--9----5----7-------3-------5------|
    A|--7----3----5-------3-------5------|
    E|--------------------1-------3------|…
  • Whole song
    E-----------------------------------|-----------------------------------|
    B-----------------------------------|-----------------------------------|
    G-8-8-8-8-----------8-8-8-8-8-8-8-8-|-5-5-5-5--8-8-8-8------------------|
    D-8-8-8-8--8-8-8-8--8-8-8-8-8-8-8-8-|-5-5-5-5--8-8-8-8--8-8-8-8-8-8-8-8-|
    A-6-6-6-6--8-8-8-8--6-6-6-6-6-6-6-6-|-3-3-3-3--6-6-6-6--8-8-8-8-8-8-8-8-|
    E----------6-6-6-6------------------|-------------------6-6-6-6-6-6-6-6-|
    
    E----------------------------------------------------------------------|
    B----------------------------------------------------------------------|
    G-8-8-8-8-8-8-8-8-----------5-5-5-5--8-8-8-8-----------8-8-8-8-8-8-8-8-|
    D-8-8-8-8-8-8-8-8--8-8-8-8--5-5-5-5--8-8-8-8--8-8-8-8--8-8-8-8-8-8-8-8-|
    A-6-6-6-6-6-6-6-6--8-8-8-8--3-3-3-3--6-6-6-6--8-8-8-8--6-6-6-6-6-6-6-6-|
    E------------------6-6-6-6--------------------6-6-6-6------------------|…
  • Intro/verse:
    e|-------------------------------------||
    B|-------------------------------------||
    G|--------9---555------------9---5-----||
    D|---77---9---555----5--77---9---5--5--||
    A|---77---7---333----5--77---7---3--5--||
    E|---55--------------3--55----------3--||
    
    Chorus:
    e|-----------------------------------------------||
    B|-----------------------------------------------||
    G|--77--5-77--5-77--5-77---7-5-4-22----22----22--||
    D|--77--5-77--5-77--5-77---7-5-4-22--5-22--5-22--||
    A|--55--3-55--3-55--3-55---5-3-2-00--5-00--5-00--||
    E|-----------------------------------3-----3-----||…
  • Once my girl was conscious, through the better days with you
            B                                                          A                          E
    Then fame and fortune came your way and made a change of you…
  • Tuning: Standard
    
    d=downstroke
    u=upstroke
    
    4x:
       A5      D5       C5   G5
    E|---------------------------------|
    B|---------------------------------|
    G|---------7---7-7--5--5-----------|
    D|-7---7-7-7---7-7--5--5-5---5-5-5-|
    A|-7---7-7-5---5-5--3--3-5---5-5-5-|
    E|-5---5-5---------------3---3-3-3-|…
  • Tuning: Standard
    
    
    Riff A (Verse)
    e|--------------------------------|
    B|--------------------------------|
    G|--------------------------------|
    D|66666666------------------------|
    A|44444444888888886666666666666666|
    E|--------666666664444444444444444|
    
    Riff…
  • E
        I hear mariachi static on the radio
                                       B7
        and the tubes they glow in the dark.
    
        And I'm there with her in Encinada
                              E
        when I'm here in Echo…
  • Part 1:
    e|------------------------|
    B|------------------------|
    G|--999999999--555-77777--|
    D|--999999999--555-77777--|
    A|--777777777--333-55555--|
    E|------------------------|
    
    Part 2:
    e|------------------------------------|
    B|------------------------------------|
    G|--9999------------5555---777777-----|
    D|--9999---7777-----5555---777777-----|
    A|--7777---7777-----3333---555555-----|
    E|---------5555-----------------------|
    
    Part…
  • C#m, A for the main riff
    
    C#m, A, C#m, F# For the chorus
    
    E, F#, B, G for the brigde. 
    
    Here I sit alone with a bullet in my gun 
    On it is the name of everyone 
    I hate you, I wanna kill you one by one 
    Worthless…
  • Verse riff
    |---------------------------------|
    |---------------------------------|
    |---------5-------3---------------|
    |-5-------5-------3---3---6-------|
    |-5-------3-------1---3---6-------|
    |-3-------------------1---4-------|
    
    Chorus…
  • A                    A
    Sitting in this room
             G                    D                     A
    Dark and gloom, four walls of hell look to me to be held
    A                    A
    Sitting in this room
             G…
  • Intro:
    e|---------------------||------------------------------|
    B|---------------------||------------------------------|
    G|------------------7--||------7-----7-----7-----7-----|
    D|--7777777777777---7--||--77--7--7--7--7--7--7--7--(7)|
    A|--7777777777777---5--||--77--5--7--5--7--5--7--5--(7)|
    E|--5555555555555------||--55-----5-----5-----5-----(5)||…
  • There are three parts to the this song.
    
    Part 1:
    
    e|----------------------------------------------------------------|
    B|----------------------------------------------------------------|
    G|----------------------------------------------------------------|
    D|-2--2-2-2-2-2-2-2-2-2-2-2-2-2--5--5-5-5-5-5-5-5-5-5-5-5-5-5-----|
    A|-2--2-2-2-2-2-2-2-2-2-2-2-2-2--5--5-5-5-5-5-5-5-5-5-5-5-5-5-----|
    E|-0--0-0-0-0-0-0-0-0-0-0-0-0-0--3--3-3-3-3-3-3-3-3-3-3-3-3-3-----|…
  • Tuning: Standard
    
    E|-----------------------------------------------------------------|
    B|-----------------------------------------------------------------|
    G|-----------------6-6-6-6-6-6-6-6-8-8-8-8-8-8-8-8-6-6-6-6-8-8-6-6-|
    D|-6-6-6-6-6-6-6-6-6-6-6-6-6-6-6-6-8-8-8-8-8-8-8-8-6-6-6-6-8-8-6-6-|
    A|-6-6-6-6-6-6-6-6-4-4-4-4-4-4-4-4-6-6-6-6-6-6-6-6-4-4-4-4-6-6-4-4-|
    E|-4-4-4-4-4-4-4-4-------------------------------------------------|…
  • Verse
    E-------------------------------------------------------|
    B-------------------------------------------------------|
    G-------------------------------------------------------|
    D-8--8--8----6--6--6----4--4--4----6--6--6----8--8--8---|
    A-8--8--8----6--6--6----4--4--4----6--6--6----8--8--8---|
    E-6--6--6----4--4--4----2--2--2----4--4--4----6--6--6---|
    
    E-------------------------------------------------------|
    B-------------------------------------------------------|
    G-------------------------------------------------------|
    D-8--8--8----6--6--6----4--4--4----6--6--6----8---------|
    A-8--8--8----6--6--6----4--4--4----6--6--6----8---------|
    E-6--6--6----4--4--4----2--2--2----4--4--4----6---------|
    
    
    Chorus…
  • Main Part:
    e|----------------------------------|
    B|----------------------------------|
    G|--------2-------5------4----------|
    D|--2-----2-------5------4----------|
    A|--2-----0-------3------2----------|
    E|--0--------------------------3----|
    
    
    Other…
  • Tuning: Standard
    
    Verse:
    
    e|----------------|
    B|----------------|
    G|----------------|
    D|55555555--------|
    A|3333333355558888|
    E|--------33336666|
    
    Chorus Pt. 1
    
    e|--------------------------------|
    B|--------------------------------|
    G|--------------------------------|
    D|7777777777779997----------------|
    A|55555555555577757777777777777777|
    E|----------------5555555555555555|
    
    Chorus…
  • Tuning: Standart
    
    Intro:
    e|---------------------------------------------------------------------------|
    B|---------------------------------------------------------------------------|
    G|---------------------------------------------------------------------------|
    D|---------------------------------------------------------------------------|
    A|--5--(8…
  • Main/verses:
    e|-----------------------------|
    B|-----------------------------|
    G|--5-5--5-5-------------------|
    D|--5-5--5-5--3-3--3--3-5-5-5--|
    A|--3-3--3-3--3-3--3--3-5-5-5--|
    E|------------1-1--1--1-3-3-3--|
    
    Chorus:
    e|-----------------------||---------------------------||
    B|-----------------------||---------------------------||
    G|-------------5-----2---||--------------5------------||
    D|--3-----5----5-----2---||--3-----5-----5---5555555--||
    A|--3-----5----3-----0---||--3-----5-----3---5555555--||
    E|--1-----3--------------||--1-----3---------3333333--||…
  • Verse:
    e|---------------------------|
    B|---------------------------|
    G|---------------------------|
    D|--5555555555--3--4--55555--|
    A|--5555555555--3--4--55555--|
    E|--3333333333--1--2--33333--||
    
    Chorus:
    e|------------------------------||-----------------------------------|
    B|------------------------------||-----------------------------------|
    G|--555----------555555---------||-----------------------------------|
    D|--555-555-3333-555555-555-3333||--555-3333333333333333--555555555--|
    A|--333-555-3333-333333-555-3333||--555-3333333333333333--555555555--|
    E|------333-1111--------333-1111||--333-1111111111111111--333333333--|…
  • -33333333-77-55-77-55-|
    -55555555-99-77-99-77-|
    -55555555-99-77-99-77-|  x16
    ----------------------|
    ----------------------|
    ----------------------|
    
    Outro:
    
    -33333333-77-55-77-55-77-55-77-55-77--|
    -55555555-99-77-99-77-99-77-99-77-99--|
    -55555555-99-77-99-77-99-77-99-77-99--|
    --------------------------------------|
    --------------------------------------|
    --------------------------------------|
    
    Murder,…
  • intro-
    G D Em C
    
    G     D              Em            C
    Let's fuck some kids they cant say no.
    G           D               Em      C
    Molest them now before they grow......
    
    G     D                 Em    C         
    Uhg,…
  • Intro/Chorus
    
    e-----------------------------------------|
    b-----------------------------------------|
    g-----------------------------------------|
    d—12-12-12-12--11-9---7-------------------|
    a—12-12-12-12--11-9---7-------------------|
    e—10-10-10-10---9-7---5-pm----------------|
    
    e-----------------------------------------|
    b-----------------------------------------|
    g-----------------------------------------|
    d—12-12-12-12--11-9-9-9---7---------------|
    a—12-12-12-12--11-9-9-9---7---------------|
    e—10-10-10-10---9-7-7-7---5-pm------------|
    
    Verse
    
    e-----------------------------------------|
    b-----------------------------------------|
    g-----------------------------------------|
    d-5-5-5-5-5-5-5--7--9-7-------------------|…
  • Intro:
    e|--------------------|
    B|--------------------|
    G|--7-----------------|
    D|--7------7-------9--|
    A|--5------7-------9--|
    E|---------5-------7--| Hold last chord & let feedback ring out.…
  • Tuning: Standard
    
    This is the whole thing. Listen to the song for exact details, but this is what's played.
    
    Riff A
    
    e|--------|
    B|--------|
    G|--------|
    D|--------|
    A|99999999|
    E|77777777|
    
    Riff B
    
    e|--------|
    B|--------|
    G|--------|
    D|99999999|
    A|77777777|
    E|--------|
    
    Riff…
  • Intro:     F G A *2
    
    C                          G
    We walked along and talked along
          F              C          G
    Til we came to the levelest ground
    C                      G
    Then I picked up a stick of wood…
  • E                         D
    I'm so great, so everybody see
    E                                      D
    Everyone of you should be looking up at me
    E                                 D 
    I'm your god, the one you'll never…
  • Intro:
    E-------------------------------------------------------|
    B-------------------------------------------------------|
    G-------------------------------------------------------|
    D-------------------------------------------------------|
    A--7-7-7-7-7--9-9---------------------------------------|
    E--5-5-5-5-5--7-7---------------------------------------|
    
    Verse:
    E-------------------------------------------------------------|
    B-------------------------------------------------------------|
    G-------------------------------------------------------------|
    D--9-9-9-9-9-9-9-9--------------------------------------------|
    A--7-7-7-7-7-7-7-7-9-9-9-7-7----------------------------------|
    E------------------7-7-7-5-5----------------------------------|
    Chorus:
    E--------------------------------------------------------|
    B--------------------------------------------------------|
    G--------------------------------------------------------|
    D--------------------------------------------------------|
    A-9-9-9-9-7-7-7-7----------------------------------------|
    E-7-7-7-7-5-5-5-5----------------------------------------|…
  • Tuning: Standard
    
    Verse 
    
    e|----------------------------------------|
    B|----------------------------------------|
    G|----------------------------------------|
    D|--------------------10999999910991099109|
    A|5/7777710-5/7777710-…
  • INTRO: BASS     A----333---3333     (x2)
                    E3333---111----
    
    G              C          F                    G
    To the cunt in Minnesota, I cracked your skull fuck you
    G             C…
  • Verse riff
    |-----------------|
    |-----------------|
    |-----------------|
    |-5-------7-------|
    |-5-------7-------|
    |-3-------5-------|
    
    Chorus riff
    |-----------------------------|
    |-----------------------------|
    |-9---7---5---7---4-----------|
    |-9---7---5---7---4-----------|
    |-7---5---3---5---2-----------|
    |-----------------------------|…
  • Main Riff:
    e|--0-------0-------------------------------------------|
    B|--0-------0----------------------------------3--3--2--|
    G|--x------------2------------------4----2-----2--2--2--|
    D|--2----5--2----2--2---(2)-----5---4----2--------------|
    A|--2----5--2----0--2---(2)-----5---2----0--------------|
    E|--0----3--0-------0---(0)-----3-----------------------|
    
    Chorus:
    E|--------------------------------------|
    B|--------------------------------------|
    G|--------------------------------------|
    D|--5555555--777777--5555555--99999999--|
    A|--5555555--777777--5555555--99999999--|
    E|--3333333--555555--3333333--77777777--|
    
    2nd…
  • F                                 Bb
    Lately everyone I know Has been shittin' all over me.
    C                           F
    Even all of my good friends They disowned my fucking friends and me.
    F                       Bb
    I…
  • First Verse                                        x2
    G----------------------------------------------------|--------------------------------------------|
    D----------------------------------------------------|--------------------------------------------|
    A--------------------7--5--2/3-3-2/3-3-2/3-3--2---0--|--------------------7--5--2/3-3-2/3-3-2/3-3-|
    E-2/3-3-2/3-3-2/3-3----------------------------------|-2/3-3-2/3-3-2/3-3--------------------------|
    
    
    Chorus…
  • Verse riff
    |-----------------------|
    |-----------------------|
    |-----------------------|
    |-9/7---9/7---9/7---5---|
    |-9/7---9/7---9/7---5---|
    |-7/5---7/5---7/5---3---|
    
    Chorus riff
    |-----------------|
    |-----------------|
    |-----4-----------|
    |-4---4---4---5---|
    |-4---2---4---5---|
    |-2-------2---3---|…
  • Intro:
    
    ----------------------------------------------|  2x
    ----------------------------------------------|
    ---6---6---4---3----4---6---4--3--------------|
    -----------------------------------3----4-----|
    ----------------------------------------------|
    ----------------------------------------------|
    
    now…
  • Main Riff/Verses:
    e|----------------------------|
    B|----------------------------|
    G|----------------------3-----|
    D|--55555555555555------3--3--|
    A|--55555555555555------1--3--|
    E|--33333333333333---------1--|
    
    Chorus:
    e|----------------------------------------------------------------------|
    B|----------------------------------------------------------------------|
    G|--33333----------33333-----------33333--------------333333--555555----|
    D|--33333--333333--33333--333333---33333--3333333-----333333--555555----|
    A|--11111--333333--11111--333333---11111--3333333-----111111--333333----|
    E|---------111111---------111111----------1111111-----------------------|…
  • Verse:
    e|------------------------------------------|
    B|------------------------------------------|
    G|-----------7777777777--5555555555---------|
    D|--77777777-7777777777--5555555555-7777777-|
    A|--77777777-5555555555--3333333333-7777777-|
    E|--55555555------------------------5555555-|
    
    
    Chorus:
    e|-----------------------------------------------------------------------|
    B|-----------------------------------------------------------------------|
    G|-----------------------------------------------------------------------|
    D|--33333333--555555555--33333333--222222222---333333333--5555555--77777-|
    A|--33333333--555555555--33333333--222222222---333333333--5555555--77777-|
    E|--11111111--333333333--11111111--000000000---111111111--3333333--55555-|…
  • Chords Used
    Eb x688xx
    E  x799xx
    A  577xxx
    B  799xxx
    F# x9.11.11xx
    C# 9.11.11xxx
    
    A              B         Eb-E  Eb-E
    Everything you do is the same, SAME, SAME!
    A        B                Eb-E  Eb-E
    Over and over…
  • Main Riff:
    e|------------------||------------------|
    B|------------------||------------------|
    G|------------------||------------------|
    D|------------------||------------------|
    A|------------------||--0-0-3-0-5-0-7-7-|
    E|--0-0-3-0-5-0-7-7-||------------------|
    
    Chorus:
    e|------------------------|
    B|------------------------|
    G|------------------------|
    D|--9-----7-----5-----3---|
    A|--9-----7-----5-----3---|
    E|--7-----5-----3-----1---|
    
    I've…
  • e|--------------------------------------||
    B|--------------------------------------||
    G|---------------5----------------------||
    D|--3------------5----------------3-----||
    A|--3------------3----------------3-----||
    E|--1-----------------------------1-----||…
  • (Main/Verse)
    |----------------------------------------------|
    |---5-7-5----5-7-5----5-7-5--7b-h-h-h-h-r-5----|
    |---5-7-5----5-7-5----5-7-5--7b-h-h-h-h-r-5----|
    |-7--------7--------7-----------------------7~-|
    |----------------------------------------------|
    |----------------------------------------------|
    
    (Bass)
    |-------------|-----|
    |-------------|-----|
    |----3--5--3--|-----|
    |-5-----------|--5--|…
  • Tuning: Standard
    
       F5                                                   A#5      C5
    E|-----------------|-----------------|-----------------|-----------------|
    B|----x-x-x-x-x-x--|----x-x-x-x-x-x--|----x-x-x-x-x-x--|-----------------|
    G|----x-x-x-x-x-x--|----x-x-x-x-x-x--|----x-x-x-x-x-x--|-3-------5-------|
    D|-3--x-x-x-x-x-x--|-3--x-x-x-x-x-x--|-3--x-x-x-x-x-x--|-3-------5-------|
    A|-3--x-x-x-x-x-x--|-3--x-x-x-x-x-x--|-3--x-x-x-x-x-x--|-1-------3-------|
    E|-1---------------|-1---------------|-1---------------|-----------------|
    1.…
  • C                     F
     Don't ever trust authority
    C                         G
     Pigs, parents and our society
          C                                   F
     You got to play by your own, own set of rules
               C…
  • standrard tuning...here's the solo:
    
    e|--------------------------------|
    B|--------------------------------|
    G|--11-11-11-11-------------------|
    D|--------------9-9-9-9-11-11-11--|
    A|--------------------------------|
    E|--------------------------------|…
  • |------------------------------------|
    |------------------------------------|
    |------------------------------------|< This is the intro riff also played 
    |-3/5--5--3/5-5-5-5--3--3--3/5-5-5-5-|  during the verses. 
    |------------------------------------|
    |-1/3--3--1/3-3-3-3--1--1--1/3-3-3-3-|
    
    
    
    |-----------------------------------------|
    |-----------------------------------------|
    |-----------------------------------------|<…
  • Chorus ("Raw Brutal Rough and Bloody")
    G--------------|--------------|--------------|--------------|
    D--------------|--------------|--------------|--------------|
    A--------------|--------------|--------------|--------------|
    E-5-3-5-3-5-3--|-5-3-5-3-5-3--|-5-3-5-3-5-3--|-5-3-5-3-5-3--|
    
    
    First…
  • Verse:
    e|----------|
    B|----------|
    G|----------|
    D|--77\5/77-|
    A|--77\5/77-|
    E|--55\3/55-|
      Drink, puke, pass out.......
    
    e|-----------------|
    B|-----------------|
    G|-----------------|
    D|--2-5-77\5/77----|
    A|--2-5-77\5/77----|
    E|--0-3-55\3/55----|…
  • Main Riff:
    e|-------------------------------------------------------------------------|
    B|-------------------------------------------------------------------------|
    G|-------------------------------------------------------------------------|
    D|--2-----2--------------------2-----2-------------------------------------|
    A|--2-----2--2222222222222222--2-----2--2222222222222222222----2p0---------|
    E|--0--3--0--0000000000000000--0--3--0--0000000000000000000---------3p0----|…
  • Main Riff:
    e|--------------------------------|
    B|--------------------------------|
    G|--------------------------------|
    D|--------------------------------|
    A|--------------------------------|
    E|-----0--0--3--0--5--5--6--------|
    
    Choruses:
    e|-----------------------||------------------------------------------------|
    B|-----------------------||------------------------------------------------|
    G|-----------------------||------------------------------------------------|
    D|-----------------------||------------8/9999--8/9999--8/9999--------------|
    A|-----------------------||------------8/9999--8/9999--8/9999--------------|
    E|--6-6-6-6--6--5--3--0--||--6-6-6-6---6/7777--6/7777--6/7777-----3~-------|…
  • Tuning: Standard
    
    Riff A (Main Verse)
    e|-----------------------------------|
    B|-----------------------------------|
    G|-----------------------------------|
    D|10\77777777555555/10\77777777555555|
    A| 8\55555555333333/…
  • Verse:
    e|------------------------------------------|
    B|------------------------------------------|
    G|-----------7777777777--5555555555---------|
    D|--77777777-7777777777--5555555555-7777777-|
    A|--77777777-5555555555--3333333333-7777777-|
    E|--55555555------------------------5555555-|
    
    
    Chorus:
    e|-----------------------------------------------------------------------|
    B|-----------------------------------------------------------------------|
    G|-----------------------------------------------------------------------|
    D|--33333333--555555555--33333333--222222222---333333333--5555555--77777-|
    A|--33333333--555555555--33333333--222222222---333333333--5555555--77777-|
    E|--11111111--333333333--11111111--000000000---111111111--3333333--55555-|…
  • Tuning: Standard
    
    Riff 1:
    
    This is the basic main riff. The strumming highly varies so listen to the song.
    
    e|--------------------------------|
    B|--------------------------------|
    G|--------------------------------|
    D|--------7777777799999999----9977|
    A|99999999555555557777777799997755|
    E|77777777----------------7777----|
    
    Riff…
  • Verse 1:
    e|--------------------------------------------------------------------------|
    B|--------------------------------------------------------------------------|
    G|----111111--------111111--------------------------------------------------|
    D|----111111-999999-111111-111111-------------------------------------------|
    A|----999999-999999-999999-111111-------------------------------------------|
    E|-----------777777--------999999-------------------------------------------|
    
    Chorus:
    e|--------------------------------------------------------------------------|
    B|--------------------------------------------------------------------------|
    G|-----------------------------111-----1------------------------------------|
    D|----999999-111111------------111-111-1------------------------------------|
    A|----999999-111111----(*3)----999-111-9------------------------------------|
    E|----777777-999999----------------999--------------------------------------|
    
    Verse…
  • C
    Always gonna fight, until the day I die
                                             G
    No laws or limits will stop me from the way I live my life
    
    Don't get in my way, unless you want to die…
  • Intro:
    e|-----------------------------------------------|
    B|-----------------------------------------------|
    G|-----------------------------------------------|
    D|------------------------------------------(2)--|
    A|-------------------------------------------2---|
    E|--3-0-0--3-0-0--3-0--3-0-0--3-0-0--3-0-----0---|…
  • Tuning: Standard E
    
        E5  G5  A5  C5  D5
    G|-------------(5)-(7)-|
    D|-(2)-(5)-(7)--5---7--|
    A|--2---5---7---3---5--|
    E|--0---3---5----------|
    
      D5        C5    D5 C5
      B-l-o-o-D-s-H-E-D  now!
    
    G5…
  • Main part:
    e|------------------------------------||-----------------------------||
    B|------------------------------------||-----------------------------||
    G|-------------------9--9-9--5-5-5-5--||-----------------------------||
    D|-------------------9--9-9--5-5-5-5--||--2-----2-----2-----2-----2--||
    A|--2-----2-----2-2--7--7-7--3-3-3-3--||--2-----2-----2-----2-----2--||
    E|--0--3--0--3--0-0-------------------||--0-----0-----0-----0-----0--||…
Наверх