Аккорды Giovannie and the Hired Guns - Rooster Tattoo

Добавлено: @romashka
Дата добавления: 18 Марта 2024г.
Рейтинг:
0.0
Просмотров: 38
Транспонировать - +
[Intro]:
e|-------------------------------------------------------0--|
B|-------0--------0-------0--------0-------0--------0----1--|
G|-----0---0----0---0---0---0----0---0---0---0----0---0--0--|
D|---2-------/5----------------5-------2-------/5--------2--|
A|--------------------3----------------------------------3--|
E|-------------------------------------------------------0--|

Em G C G Em G C x2

Em      G            C        G
Its one AM I'm still drinkin'
Em      G     C        G
Guess I didnt get enough.
Em      G                 C        G
Its one AM my friends are drinkin'
Em             G               C
Theyre 'prolly all out havin' fun
N.C.
Aw yea

Arp during bridge:
e|---------------------------------------------------------------|
B|-----0--------0--------0-------0--------0--------0--------0----|
G|-------0--------0--------0-------0--------0--------0--------0--|
D|---4--------4--------4-------4--------4--------4--------4------|
A|----------2--------3-------------------------2--------3--------|
E|-0--------------------------3-------0--------------------------|

Em G C G Em G C

Arp for verse x2:
e|-----------------------------------------------|
B|---------------------------------------------3-|
G|-----0-----0-----0-----0-------0-----0-----0---|
D|---4-----4-----4-----4-------4-----4-----4-----|
A|-------2-----3-------------------2-----3-------|
E|-0-----------------3-------0-------------------|

Em        G       C        G
I'm just tired of thinkin'
Em            G     C        G
Feels like im going insane
Em      G              C    G
And the one thing that I hate
Em            G              C
Were in that same damn tiny place

D                 Cadd9          G
And I still think about your old white car
D          Cadd9      G
Every time one passes by
Am             C            G
I got a middle finger and a rooster tatoo
Am   C     G
Waiting on you

Arp for verse x2:
e|-----------------------------------------------|
B|---------------------------------------------3-|
G|-----0-----0-----0-----0-------0-----0-----0---|
D|---4-----4-----4-----4-------4-----4-----4-----|
A|-------2-----3-------------------2-----3-------|
E|-0-----------------3-------0-------------------|

Em        G       C           G
Im just out here doin my best
Em           G           C       G
I guess some things dont change
Em            G             C             G
I still have dreams and the ways that Ill say
Em              G             C
That I'mma quit drinking some day
         Em          G            C            G
Well Ive heard youve picked up on drinking
    Em          G                   C        G
You turned into everything that you hate
Em       G          C       G
The only thing that bothers me
Em             G        C
Is where youre going to stay

D                 Cadd9           G
And I still think about your old white car
D          Cadd9      G
Every time one passes by
Am             C            G
I got a middle finger and a rooster tatoo
Am   C     G
Waiting on you

Em G C G Em G C

      Bm                    G
And I dont need to shout Im singing
      Bm                    G
I didnt mean to say all those things
      Bm        A                     G
Before you go I want you to know one thing

Single strum or arpeggio:

D                  G             Cadd9
That I still think about your old white car
D          G          Cadd9
Every time one passes by
Am             C            G
I got a middle finger and a rooster tatoo
Am   C     G
Waiting on you

E C D                  Cadd9         G
And I still think about your old white car
D         Cadd9       G
Every time one passes by
Am             C            G
I got a middle finger and a rooster tatoo
Am   C     G
Waiting on you

Em G Cadd9 G Em G Cadd9 x2

************************************

| /  Slide up

************************************ 
Наверх