Аккорды «Glassjaw»

Glassjaw
Glassjaw - это пост-хардкор команда из Нью-Йорка, основанная в 1993 году. Ее основателями стали вокалист Дэрил Паламбо (Daryl Palumbo) и гитарист Джастин Бек (Justin Beck). Они играли вместе еще с детства. В годы формирования к группе присоединились также гитарист Тодд Вайнсток (Todd N. Weinstock), басист Мануэль Карреро (Manuel Carrero) и барабанщик Сэмми Сиглер (Sammy Siegler), и таким составом они записали свой дебютный альбом Everything You Ever Wanted to Know About Silence. Во время летнего… Читать полностью... Glassjaw - это пост-хардкор команда из Нью-Йорка, основанная в 1993 году. Ее основателями стали вокалист Дэрил Паламбо (Daryl Palumbo) и гитарист Джастин Бек (Justin Beck). Они играли вместе еще с детства. В годы формирования к группе присоединились также гитарист Тодд Вайнсток (Todd N. Weinstock), басист Мануэль Карреро (Manuel Carrero) и барабанщик Сэмми Сиглер (Sammy Siegler), и таким составом они записали свой дебютный альбом Everything You Ever Wanted to Know About Silence. Во время летнего тура с Deftones Сиглера сменил Ларри Горман (Larry Gorman). На место Карреро, покинувшего группу по завершении турне в поддержку альбома, впоследствии пришел Дэйв Аллен (Dave Allen). Два года спустя Glassjaw подписали контракт с Warner Bros. и выпустили свой Worship and Tribute в июле 2002-го. Очередные изменения в составе произошли в конце 2004 г., когда группу в силу различных обстоятельств покинули Вайнсток, Горман и Аллен: Вайнсток сосредоточился на своем сайд-проекте Men Women & Children, а Горман присоединился к другой группе Паламбо - Head Automatica. В это же время начали ходить слухи о распаде Glassjaw. Однако в скором времени в коллектив вернулся Мануэль Карреро, а место барабанщика занял Дьюрайджа Лэнг (Durijah Lang). Первые шоу после двухлетнего молчания прошли летом 2005 г. В декабре 2006-го группа отправилась в небольшой, но успешный тур по США. Седьмого июля 2007 г. Glassjaw дали концерт перед пятитысячной аудиторией на легендарной площадке Brixton Academy в Лондоне. В настоящее время группа заканчивает работу над своим третьим альбомом. Скрыть...
Популярные аккорды Glassjaw:
алфавиту | просмотрам | случайно
  • Tuning - Drop D
    
    Intro (bass tabbed for guitar) x2
    E---------------------------------------|
    B---------------------------------------|
    G---------------------------------------|
    D---------------------------------------|
    A-5-5-5-5-5h6p5-5-5-5-5-5h6p5-5-5-5h6p5-|
    D-0-------------------------------------|…
  • Guitar 1
                                                              
    E||------------------|------------------|------------------|
    B||------------------|------------------|------------------|
    G||------------------|------------------|------------------|
    D||------------------|------------------|------------------|
    A||------------------|------------------|------------------|
    D||------------------|------------------|------------------|…
  • Guitar 1
                                           
    E||---------------------|--------------|
    B||---------------------|--------------|
    G||---------------------|--------------|
    D||---------------------|--------------|
    A||--0----2------3------|--5------6----|
    D||--0----2------3------|--5------6----|…
  • Guitar 1
                                                  
    E||--------------------|------------------------|
    B||--------------------|------------------------|
    G||--------------------|------------------------|
    D||--------------------|------------------------|
    A||--3--------2--------|--0--0-0-0--0--0--------|
    D||--3--------2--------|--0--0-0-0--0--0--------|…
  • INTRO
    G|----------------|
    D|----------------|
    A|----------------|
    D|---3-------0----| 
    
    Verse
    |----------------------------|
    |----------------------------|
    |----------------------------|after 3 or 4 repetitions of that do…
  • Tuning: Dropp D
    
    e|-----------3-3-3-3-3--------------3-3-3-3-3----------------------|
    B|-----------3-3-3-3-3--------------3-3-3-3-3----------------------|
    G|-----------1-1-1-1-1--------------1-1-1-1-1----------------------|
    D|-----------------------------------------------------------------|
    A|-0-0-0-0---------------0-0-0-0-------------------0-0-0-0---------|
    D|-0-0-0-0---------------0-0-0-0-------------------0-0-0-0---------|
    
    
    e|-----------3-3-3-3-3--------------3-3-3-3-3----------------------|
    B|-----------3-3-3-3-3--------------3-3-3-3-3----------------------|
    G|-----------1-1-1-1-1--------------1-1-1-1-1----------------------|
    D|-----------------------------------------------------------------|
    A|-0-0-0-0---------------0-0-0-0-------------------0-0-0-0---------|
    D|-0-0-0-0---------------0-0-0-0-------------------0-0-0-0---------|
    
    
    e|-----------3-3-3-3-3--------------3-3-3-3-3----------------------|
    B|-----------3-3-3-3-3--------------3-3-3-3-3----------------------|
    G|-----------1-1-1-1-1--------------1-1-1-1-1----------------------|
    D|-----------------------------------------------------------------|
    A|-0-0-0-0---------------0-0-0-0-------------------0-0-0-0---------|
    D|-0-0-0-0---------------0-0-0-0-------------------0-0-0-0---------|
    
    
    e|-----------3-3-3-3-3--------------3-3-3-3-3----------------------|
    B|-----------3-3-3-3-3--------------3-3-3-3-3----------------------|
    G|-----------1-1-1-1-1--------------1-1-1-1-1----------------------|
    D|-----------------------------------------------------------------|
    A|-0-0-0-0---------------0-0-0-0-------------------0-0-0-0---------|
    D|-0-0-0-0---------------0-0-0-0-------------------0-0-0-0---------|
    
    *This…
  • Tuning - DADGBE
    
    pm... = Palm mute
    S     = slide
    /    = Hammer on/off
        = Harmonic
    
    
    Intro [clean]
     Strum
    |--------|-------3-|
    |-7----3-|---3-----|
    |-7----0-|-----0---|
    |-5----x-|---------|
    |-7----3-|-3-------|
    |--------|---------|
    
    
    Chorus…
  • TUNING: Drop D (D A D G B E)
    
         Riff 1: (both guitars)
        E|---------------------------|
        B|---------------------------|
        G|---------------------------| PM = palm mute
        D|-0-0-0-0--0h3-0h3--0-0-0-0-|
        A|-0-0-0-0--0h3-0h3--0-0-0-0-|…
  • h: hammer-on
    p: pull-off
    
    Tuning: DADGBE
    
    Verse
    Chorus
    Verse
    Chorus x2
    Bridge
    Chorus x4
    
    Guitar 1:  Verse 
    
    E|-------------------|
    B|-------------------|
    G|-12-------12-------|
    D|-------14-------14-|  repeated randomly through…
  • TUNING: Drop D [DADG]
    
    h - hammer on 
    p - pull off 
    b - bend string up
    r - release bend
    / - slide up
     - slide down
    v - vibrato (sometimes written as ~)
    t - tap (with strumming hand)
    x - muted, struck string
    
    It's…
  • Key: C
    
    
    Tuning: Standard EADGBe
    
    Chords used:
    F -  133211
    G -  320003
    Am - x02210
    C -  x32010
    
    
    Intro: F-G-Am-C- x4
    
    
    Verse 1:
          F            G                 Am
    If it makes you it takes you I don't…
  • Tuning:Drop D
    
    Intro
    E ----------------------------------------------|
    B ----------------------------------------------|
    G -----*5---------------------------------------|
    D -0---*5---0-----------------------------------|
    A…
  • Tuning - DADGBE
    
    pm... = palm mute
    ^#    = bend (to note of #)
    r#    = release bend (to note of #)
    s     = slide
    /    = hammer on/off
     h = harmonic
    (#)   = don't pick the note; slide down/up to that # or start at that #…
  • Tuning: Drop D
    
    Intro:
    
    Rhythm:
    |------------------------------|
    |------------------------------|
    |------------------------------|
    |-3-2-0-3-2-0-3----------------|
    |-3-2-0-3-2-0-3----------------|
    |-3-2-0-3-2-0-3----------------|
    PM.…
  • KEY
    
    x = mute
    D = strum down
    U = strum up
    PM = palm mute
    / = legato slide
    p = pull off
    
    
    Intro
         
          D    U  D  U  D    U  D  U  D    U  D  U  D    U  D  U
    e|-------------------------------------------------------------|
    B|-------------------------------------------------------------|
    G|-------------------------------------------------------------|
    D|---11---11-11-11-11---11-11-11-14---14-14-14-14---14-14-14---|
    A|----x----x--x--x--x----x--x--x--x----x--x--x--x----x--x--x---|
    E|----9----9--9--9--9----9--9--9-12---12-12-12-12---12-12-12---|…
  • __=palm mute
    h=hammer-on
    
    intro-guitar1
    ---|---------------|---------------------------------------|
    ---|---------------|---------------------------------------|
    ---|---------------|---------------------------------------|
    -0-|---------------|-x-x-2-2-x-x-2-2-x-x-2-3-3-3-3-3-3-3-3-|
    -0-|---------------|-x-x-2-2-x-x-2-2-x-x-2-3-3-3-3-3-3-3-3-|
    -0-|-(pick…
  • F#m
    Put the needle to the record 
    C#m
    and hit me with your style
    A                     A
    Soon enough I'll learn to unload my mouth
    
    
    F#m
    Cant you see its getting blacker
    Bm                         Bm
    The vibe…
  • Intro/Verse (Guitar 1)
    e--------------------|-------------|
    b----------13-10-----|-------------|
    g-12-10---------12h14|-15-14-------|
    d-------12-----------|-------15----|
    a--------------------|----------15-|
    D--------------------|-------------|
    
    
    Intro…
  • Tuning - DADGBE
    
    pm... = palm mute
    s     = slide
    /    = hammer on/off
       = harmonic
    (#)   = don't pick the note; slide down/up to that # or start at that # (relative, not approximate)
    
    
    (Guitar Tab Arranged For Piano)
    (0:00)					(0:13)
    |--------0---5---0-----0---1-0-----|-------0---5---0-----1-0---------------------|
    |------3-----------------------1---|-----3-------------------1-1--------0--1-----|
    |----2-----2---2-----2---2-------2-|---2-----2---2-----2-------------0-------0-2-|
    |----------------------------------|---------------------------------------------|
    |-0--------------------------------|------------------------------------2--3---0-|
    |------------------3---------------|-5---------------------------3---5-------5---|
    
    
    (0:28)					(0:41)
    |-------0---5---0-----0---1-0-----|-------0---5---0-----0---1-0-------|
    |-----3-----------------------1---|-----3-----------------------1-1---|
    |---2-----2---2-----2---2-------2-|---2-----2---2-----2---2-----------|
    |---------------------------------|-----------------------------------|
    |---------------------------------|-0---------------3-------1-------0-|
    |-0---------------3---------------|---------5-------------------------|
    
    
    (0:56)…
  • e|-2-2-2-2-2-2-2-2-2-2-2-2-----|
    B|-2-2-2-2-2-2-2-2-2-2-2-2-----|
    G|-4-4-4-4-4-4-4-4-4-4-4-4-----|
    D|-3-3-3-3-3-3-3-3-3-3-3-3-----|
    A|-2-2-2-2-2-2-2-2-2-2-2-2-1/--|
    D|-------------------------1/--|
    
    OR
    
    It could…
  • Tuning - DADGBE
    
    pm... = palm mute
    ^#    = bend (to note of #)
    r#    = release bend (to note of #)
    s     = slide
    /\    = hammer on/off
    <#>   = harmonic
    (#)   = don't pick the note; slide down/up to that # or start…
  • /=slideverse:this is the basic baseline all the other stuff is just fills
    G--9-7-5----------
    D-7-5-3--0/3/5/7/5
    A-----------------
    D-----------------
    do that over and over again
    
    chorus:played very fast (it's played…
  • Tuning - DADGBE
    
    pm... = palm mute
    ^#    = bend (to note of #)
    r#    = release bend (to note of #)
    s     = slide
    /    = hammer on/off
       = harmonic
    (#)   = don't pick the note; slide down/up to that # or start at that #…
  • Tuning - DADGBE
    
    pm... = palm mute
    ^#    = bend (to note of #)
    r#    = release bend (to note of #)
    s     = slide
    /\    = hammer on/off
    <#> h = harmonic
    (#)   = don't pick the note; slide down/up to that # or start…
  • Tuning - DADGBE
    
    pm... = palm mute
    s     = slide
    /    = hammer on/off
       = harmonic
    (#)   = don't pick the note; slide down/up to that # or start at that # (relative, not approximate)
    
    
    Verse [distortion/compression]
    |-------------------|-----|---|
    |-8-8-8-8---8-8-8-8-|-----|-5-|
    |-7-7-7-7---7-7-7-7-|-----|-8-|…
  • Standard Tuning
    
    INTRO/VERSE
    
    
    E-------------------------------------------------------------------------------------------------||
    B-------------------------------------------------------------------------------------------------||
    G--------------------------------------------------------0-0-0-------------5-----------7----------||
    D---2-----------------2------2---------------------0-----0-0-0----------3-----------7-------------||
    A---2--0-2-3-2-0-2----2------2--0-2-3-2-0-2------2---2---2-2-2----0--3--------0--5----------------||
    E---0--------------3--0------0----------------3----------3-3-3------------------------------------||
    
    PRE-CHORUS/CHORUS
    
    E--------------------|
    B----------------3---|
    G-------4--5--4--0---|
    D---2---2--5--2--0---|
    A---2---2--3--2------|
    E---0------------3---|
    
    E--------------------|
    B--------------------|
    G-------4--5--4------|
    D---2---2--5--2--2---|
    A---2---2--3--2--2---|
    E---0------------0---|
    
    E-----------------10-|
    B-----------------10-|
    G-------4--5--4---10-|
    D---2---2--5--2---10-|
    A---2---2--3--2----8-|
    E---0----------------|
    
    BRIDGE
    (to…
  • Tuning:DADGBE
    
    ------------------------------------------|-----------|-----|-----------|------------------|--|
    -171717171717171717171717-|-----------|-----|-----------|------------------|------------------|
    -212121212121212121212121-|---333---|-----|-----------|-----75----------|---7/8/7-787---------|
    ------------------------------------------|000333-|-----|-77--77-|-000-76-00-6-|---x-x-x-xxx--|
    ------------------------------------------|000111-|-7^-|-77--77-|-000-54-00-6-|---7/8/7-787---|
    ------------------------------------------|000------|-----|-77--77-|-000----00-----|000-------|…
  • Tuning - EADGBE
    
    pm... = palm mute
    s     = slide
    /    = hammer on/off
        = harmonic
    
    
    Intro - Guitar 1 [distortion]
    |---------------------------------|
    |---------------------------------|
    |---------------------------------|
    |---------------------------------|…
  • Tuning: D-A-D-G
    Notes:
    h - Hammer-On
    ~ - Let Ring
    x - Mute Note
    
    
    Verse: (x6) 
    G|-----------------------------------|
    D|--5---4---5---4---5---4---5---4----|
    A|-----------------------------------|
    D|----5---5---5---5---5---5---5---5--|
    
    G|-----------------------------------|
    D|--2---4---2---4---2---4---2---4----|
    A|-----------------------------------|
    D|----2---2---2---2---2---2---2---2--|
    
    
    
    Chorus:…
Наверх