Аккорды «Goldfinger»

Goldfinger
Джон (John Feldmann) и Саймон (Simon Williams) работали вместе в обувном магазине «NaNa's shoe store» в Калифорнии. У них были смелые задумки по поводу создания группы, но не было ударника. Тогда они попросили послушать их демо-запись Дэррина Пфайфера (Darrin Pfeiffer), который работал в кафе «Starbucks». Запись ему очень понравилась и он присоединился к ним. К тому времени группу покидает гитарист и уезжает в Коста Рику профессионально заниматься сёрфингом. Вместо него в группу приходит давний… Читать полностью... Джон (John Feldmann) и Саймон (Simon Williams) работали вместе в обувном магазине «NaNa's shoe store» в Калифорнии. У них были смелые задумки по поводу создания группы, но не было ударника. Тогда они попросили послушать их демо-запись Дэррина Пфайфера (Darrin Pfeiffer), который работал в кафе «Starbucks». Запись ему очень понравилась и он присоединился к ним. К тому времени группу покидает гитарист и уезжает в Коста Рику профессионально заниматься сёрфингом. Вместо него в группу приходит давний друг Джона (John Feldmann) Чарли Паулсон (Charlie Paulson). Первое выступление Чарли было немного гектично, он взял записи песен вечером в пятницу, отрепетировал с группой в субботу и отиграл на концерте тем же вечером. Группа записывает свой 6ти трековый EP «Richter», который вызывает изумительные отзывы и поднимается на вершины коледжского радио. Первый долгоиграющий альбом с одноимённым названием «Goldfinger» был записан в 1995 году и вышел в продажу весной 1996. Также в этом году выходят видео клипы на композиции «Here in your Bedroom», «Mable», «Only a Day». В 1996 году Goldfinger выступила на 382 концертах... за 365 дней. Они выступали с такими группами как:«Sex Pistols», «No Doubt» and «Reel Big Fish», играя на самых известных площадках, в том числе «Vans Warped Tour». В 1997 году выходит второй альбом «Hang-Up's», который включал в себя кавер версию «More Today Than Yesterday» от «Spiral Starecase», вошедшую в саундтрек к известной киноленте «The Waterboy». Летом 1998 года Саймон Вильямс (Simon Williams) покидает группу и ему на замену приходит давнишний приятель Джона по группе «Electric Love Hogs» - басист Kelly LeMieux. В 1999м группа записывает и выпускает второй EP «Darrin's Coconut Ass-Live From Omaha». Он включает в себя 8 кавер-версий. Очередным лонгплэем «Goldfinger» стал «Stomping Ground» выпущенный весной 2000 года через «Mojo Records». В поддержку альбома музыканты отправились в тур по Европе и Соединенным Штатам вместе с группами: «Eve6», «Showoff», «BloodHound Gang» и Mest. Во время тура, группа записала один из своих концертных сетов «Foot In Mouth», который можно было приобрести исключительно на концертах или через официальный сайт «Goldfinger». В 2002 году Чарли Паулсон (Charlie Paulson) уходит из группы и в «Goldfinger» приходит Браин Артур (Brian Arthur) из техасской группы Unloco.Вскоре, «Goldfinger» прописались на новом для себя лэйбле «Jive/Zoomba», через который и был выпущен очередной альбом «Open Your Eyes» в 2002 году. В 2005 году группа записывает свой последний из изданых альбомов «Disconnection Notice» на лэйбле «Maverick Records» и отправляется в поддержку с группами «Sum41» и «Good Charlotte». В середине 2005 года из группы уходит Браин Артур (Brian Arthur) и на его место возвращается Чарли Паулсон (Charlie Paulson). В 2008 году свет увидел новый альбом группы под названием "Hello Destiny". Скрыть...
Популярные аккорды Goldfinger:
алфавиту | просмотрам | случайно
  • Intro/Chorus x2
    
    G---------------------------------------
    D---------------------------------------
    A---------------------------5-5-5-5-5---
    E-0-0-0---7-7-7-7---3-3-3---------------
    
    Verse x4
    
    G---------------------------------------
    D---------------------------------------
    A-7-7-7---------------------5-5-5-5-5---
    E---------7-7-7-7---3-3-3---------------
    
    Pre-Chorus…
  • Intro
    e|--------------------------------------------------------|
    B|-8-8--10-12--8-8--10-12-8-8--10-12-13--12-10-12-10------|
    G|-x-x--x--x---x-x--x--x--x-x--x--x--x---x--x--x--x-------|
    D|-5-5--7--9---5-5--7--9--5-5--7--9--10--9--7--9--7-------|
    A|--------------------------------------------------------|
    E|--------------------------------------------------------|
    
    Intro…
  • intro
    
    e|---------------------------------------------------------------------
    b|---------------------------------------------------------------------
    g|---------------------------------------------------------------------
    d|---2--222222--4--444444--777--7777-777--999-9999999------------------
    a|---2--222222--4--444444--777--7777-777--999-9999999------------------
    E|---0--000000--2--222222--555--5555-555--777-7777777------------------
    
    verse…
  • Tuning:normal
    
    ^:strum up
    v:strum down
    *:palm mute
    p:pull off
    #:harmonic
    
    Intro: i think its on piano but here it is anyway
    
    e|--10-9-------10-9-------10--10--10-----------------------------------------|
    B|-------10---------10--------x---10--10-------------------------------------|
    G|----------11---------11-----12------11-------------------------------------|
    D|------------------------------------12-------------------------------------|
    A|---------------------------------------------------------------------------|
    E|---------------------------------------------------------------------------|
    
    Verse:…
  • Intro
    G-----------
    D-----------
    A-2-2-2-2-2-
    E--0-0-0-0--
    
    Verse
    G--------------------------------------------------------
    D--------------------------------------------------------
    A-2222222222222222----------------4444444444444444-----2-
    E-----------------2222222222222222----------------00-22--
    
    Pre…
  • INTRO/OUTRO
    
    E:--------------------------
    B:--------------------------
    G:--------------------------
    D:--2-0-2--2-0-2--2-0-3-2-0-   X2
    A:3------------------3------
    E:-------3------1----------3
    
    VERSE:
    C…
  • intro
    E-----------------
    B-----------------
    G-----------------
    D-----------------
    A-----------------
    E---3--5--8--7----
       (PALM MUTE)
    
    chorus
    E-----------------
    B-----------------
    G-----------------
    D--7--5--10--9----
    A--7--5--10--9----
    E--5--3--8---7----…
  • Intro and slow half
    G|--------------------|------------------------------------|
    D|--------5/7/5-------|------------------------------------|
    A|--10/-3---------3-0-|-----0-0-2-2------------------------|
    E|--------------------|--3---------------------------------|
    
    Fast…
  • A
         It's up to you what you can do
                     E
    You're left with all your choices
    A
         You're in the clear, another beer
                E
    Would quiet all the voices
    
    
        A         E
    But it's your life…
  • (INTRO)
    *NOTE: The chords are muted in places through the intro.  Listen to the song
    for timing and placement.
    
       E      B A     a         g#
    e-------------------------------------
    B-------------------------------------
    G--99999----------14-14-14--13-13-13--
    D--99999--9-77-7--14-14-14--13-13-13--…
  • Tuning: Standard
    
    Intro:
    e|-------------------------------------|
    B|-------------------------------------|
    G|--77xx-7-77--------------------------|
    D|--77xx-7-77--77--22xx-2-22--55-------| (X3)
    A|--55xx-5-55--77--22xx-2-22--55-------|
    E|-------------55--00xx-0-00--33-------|
    
    Verse:
    e|-------------------------------------|
    B|-------------------------------------|
    G|--77xx-7-77--------------------------|
    D|--77xx-7-77--77--22xx-2-22--55-------|…
  • e|---------------------------------------------------------------------------|
    B|---7----------------------------------7------------------------------------|
    G|--7-----3----4----4----4----6----6---7----3----6----6----------------------|
    D|-7-----4----5----5----5----7----7---7----4----5----7-----------------------|
    A|5-----4----5----5----5----7----7---5----4----5----7------------------------|
    E|-----2----3----3----3----5----5--------2----3----5-------------------------|…
  • intro
    D----------------2------6---------
    A---4------5---4---4--7---7-----
    E-5---5--7---7------------------
    
    Verses
    D---------------------
    A------2222-4444-7777-
    E-5555----------------
    
    Choruses
    D----------------2222
    A-----------4444-----
    E-5555-2222----------
    
    Athe…
  • INTRO 
    G:---------------------------------------------------------------------------- x 2
    D:----------------------------------------------------------------------------
    A:-------------4---------5-5--4----------------------------4--------5-----444-
    E:--7---5---------5-----------------222--------7---5---------5----------------
    
    
    VERSE:…
  • Intro:
    e|------------------------------------------------|
    B|------------------------------------------------|
    G|--4--------4---------------9999x----------------|
    D|--4--------4---4---6-------9999x----------------|
    A|-22--------2---4---6-------7777x----------------|
    E|---------------2---4----------------------------|…
  • Intro:
    
     |             G    A   D |
    E|------------------------|
    B|------------------------|
    G|----------------------7-|  4x
    D|-------------5-5--7-7-7-|
    A|-5--4--2--0--5-5--7-7-5-|
    E|-------------3-3--5-5---|
    
    
    Verse:
    
     |…
  • the hole song is: D5  A5  E5  G5
    a mъsica toda й: D5  A5  E5  G5
    
    Solo 2x:
    E--------------------------------------------------------------
    B--10-10-10-10----------8-8-8--7----------7-7-7-------7--------
    G---------------9-9---------------9-7------------7h9----9-7----
    D-------------------------------------9------------------------
    A--------------------------------------------------------------
    E--------------------------------------------------------------
    
    In…
  • Intro: (played in the order given and with ska upstrokes)
       D    A    Em   Bm   Em   F#m  Em
    E--5----5----7----2----7----9----7---*12-12-9-9-10-10-9-
    B--7----5----8----3----8---10----8----------------------
    G--7----6----9----4----9---11----9----------------------
    D--7----7----9----4----9---11----9----------------------
    A-------------------------------------------------------
    E-------------------------------------------------------
    (*Play…
  • Chord progression for the verse and chorus is:
    
             A        C#m      F#m          E
    e--------5---------4--------2-----------0-|
    b--------5---------5--------2-----------0-|
    g--------6---------6--------2-----------1-|
    d--------7---------6--------4-----------2-|
    a--------7---------4--------4-----------2-|
    E--------5---------4--------2-----------0-|
    
    Just…
  • Intro
    ------------------------------|
    ------------------------------|
    ------------------------------|
    ------------------------------|
    ---4-----4---777-7-7-7---6----|
    ------4--------------------7--|
    
    ------------------------------|
    ------------------------------|
    ------------------------------|
    ------------------------------|
    ---4-----4---777-9-9-9---7-6--|
    ------4-----------------------|
    
    Verse/Chorus
    -4----5----7----7-----|
    -5----5----9----7-----|
    -6----6----9----6-----|…
  • Normal tuning
    
    x = cut note off
    
    Verse
    A---------------------------2--2--2--2-2-2--3--2--3-
    E-0--0--0--0-0-3--3--3--3-3-------------------------
    
    Chorus
    A-4--4--4--4-4--------------4--4--4--4-4------------
    E--------------3--3--3--3-3--------------3-x--3-x---
    
    "You're…
  • F    C     Dm     A# 
    Yeah ah, Yeah
    F    C     Dm     A#
    Yeah ah, yeah
    
    F
    I never wanted
    Dm             A#
    I never needed anything but you
       A#
    Or any dreams come true
    F
    I never wished for
    Dm…
  • acoustic guitar one
    e-| --------------------------------------------|
    B-| --------------------------------------------|
    G-| -7~~~~33~~~~9-9-9-9-5-5-5-5-7-7-7-7-8-8-8-8-|
    D-| -7~~~~33~~~~9-9-9-9-5-5-5-5-7-7-7-7-8-8-8-8-|
    A-|…
  • Main Riff
    e-----------------------------------------|
    b-----------------------------------------|
    g------9-9--------------------    repeat--| x5
    d-7-7--9-9-9-(9)-9-9-9-9-9-9-9------------|
    a-7-7--7-7-9-(9)-9-9-9-9-9-9-9------------|
    E-5-5------7-(7)-7-7-7-7-7-7-7------------|
    
    Bridge…
  • Intro (Main Riff)
    
    (Guitar 1)
    ----------------------------------------------------------------------|
    ----------------------------------------------------------------------|
    --------------------------5--4----------------------------------------|
    ---2^3--2-----------------3--2--5--8--7--3--5-------------------------|
    -----------3--6--5--1--3--------3--6--5--1--3-------------------------|
    ----------------------------------------------------------------------|…
  • e|----------------------------------------------------------3-------3--|
    b|--------0--------0---------1---------1---------1----------0-------0--|
    g|--------0--------0---------2---------2---------2---------------------|
    d|--2---2---2--2-2----2------------------2-0--0------------------------|
    a|----------------------0--0---0--0--0---------------------------------|
    e|--------------------------------------------------2--3-3-----3-3-3---|…
  • Main/Intro riff: (repeated)
    E----------------------------------
    B----------------------------------
    G----------------------------------
    D----4-5-4-5--------4-5-4-5-7------
    A-5r---------7---5r-------------5r-
    E--------------5--------------5----
    
    Play…
  • Bs
    It's funny to think I trusted you
    Bs                                Ds             As                      Bs
    It's funny to think that I have spent my whole damn life supporting you
    Bs
    It's funny that I believed…
  • Standard E Tuning
    
    Layout:
    
    Intro
    Verse- D A Bm G
    Prechorus- F G D
    Chorus- D Em F#m G, D G A
    Mini-Solo
    Verse
    Prechorus
    Chorus
    Solo
    Prechorus
    Chorus (1st line w/o guitar)
    Chorus
    Outro
    
    
    
    
    Intro
    
    E-------------------------------------------------2/10\2---------
    B----------------------------------------------------------------
    G----------------------------------------------------------------
    D---4-4----4-4----4-4---5\4-0-2/4--4-4-0---0---------------------
    A-------5------5------5------------------2----7-5-4--------------
    E----------------------------------------------------------------
    
    E---2-2----2-2----2-2----3p2---0h2--2-2--------------------------
    B-------3------3------3------3----------3p0h3--3-5--3------2/5---
    G------------------------------------------------------2/6-2/6---
    D------------------------------------------------------2/6-------
    A----------------------------------------------------------------
    E----------------------------------------------------------------
    
    
    
    
    
    Verse…
  • Intro - Lead
    e|---------------------------|--|--------------------------------------------|
    B|---------------------------|--|--------------------------------------------|
    G|-777777777777-555555-------|--|----------------------------------5----4----|
    D|-xxxxxxxxxxxx-xxxxxx-555555|X2|-4-5-4-5/7-7-5-55------4-5-4----------------|
    A|-555555555555-333333-xxxxxx|--|------------------5-55-------5-55---55---55-|
    E|---------------------333333|--|--------------------------------------------|
    
    Intro…
  • TUNING: STANDARD 
    
    
    Intro
    
    DRUMS AND THEN
    
    E----------------|
    B----------------|
    G----------------|
    D--5/---2--------|
    A--5/---2--------|
    E----------------|
    
    
    Verse
    
    
    E---------------------------------------------------------------------------|
    B---------------------------------------------------------------------------|
    G---------------------------------------------------------------------------|
    D--4--4-4-4-4-4--4/--5--5-5-5-5-5--5/--7--7-7-7-7-7--7/--5--5-5-5-5-5-------|
    A--4--4-4-4-4-4--4/--5--5-5-5-5-5--5/--7--7-7-7-7-7--7/--5--5-5-5-5-5-------|
    E--2--2-2-2-2-2--2/--3--3-3-3-3-3--3/--5--5-5-5-5-5--5/--3--3-3-3-3-3-------|…
  • INTRO (arpeggio down-strokes)
    F***,   f***...
    e|-7-------4-------7-------2-------7-------4-------7--|
    B|-7-------4-------7-------2-------7-------4-------7--|
    G|-8-------4-------8-------3-------8-------4-------8--|
    D|-9-------6-------9-------4-------9-------6-------9--|
    A|-9-------6-------9-------4-------9-------6-------9--|
    E|-7-------4-------7-------2-------7-------4-------7--|
    
    ye-haw
    e|--------------------|
    B|--------------------|
    G|--------------------|
    D|-4-4---4-4-4---4-4--|
    A|-4-4---4-4-4---4-4--|
    E|-2-2---2-2-2---2-2--|
    
    VERSE
    F.…
  • Tuning:Drop D
    
    Intro
    Rhythm
    e|---------------------------------------------------------------|
    B|---------------------------------------------------------------|
    G|-7---5--------7---5------7---5---------------------------------|
    D|-7---5---5-3--7---5--5---7---5--8-8--8-8-8--8-8-8--8-8-8--8-7--|
    A|-5---3---5-3--5---3--5---5---3--8-8--8-8-8--8-8-8--8-8-8--8-7--|
    E|---------5-3---------5----------8-8--8-8-8--8-8-8--8-8-8--8-7--|
    
    Lead
    e|------------------------|
    B|------------------------|
    G|------------5----4^5(4)-|
    D|-----7----5------------5|
    A|-5-8----3---------------|
    E|--------------3---------|
    
    e|--------------------------------------------------|
    B|--------------------------------------------------|
    G|-----------5-------------------------------6^7(6)-|
    D|-----7---5---8-8--8-8-8--8-8-8--8-8-8--8-7-------7|
    A|-5-8---3-----8-8--8-8-8--8-8-8--8-8-8--8-7--------|
    E|-------------8-8--8-8-8--8-8-8--8-8-8--8-7--------|
    
    Verse
    "I…
  • INTRO: G  D  Em  C
    
    
    Or, on the electic guitar, you could play it like this:
    
    
    --------------------------------------------------------------------------
    --------------------------------------------------------------------------
    ----------------7777777-------------------5555555-------------------------
    ---5555555------7777777------2222222------5555555-------------------------X2
    ---5555555------5555555------2222222------3333333-------------------------
    ---3333333-------------------0000000--------------------------------------
    
    
    
    Then…
  • A5   C#5     D5     E5     B5    G#5     Em     G5     A*    C#*     D*    
    |---| |---|  |---|  |---|  |---|  |---|  |---|  |---|  |-5-|  |-4-|  |-5-|  
    |---| |---|  |---|  |---|  |---|  |---|  |---|  |---|  |-5-|  |-5-|…
  • e|---------------------------|		
    B|---------------------------|		
    G|---------3-2-------------0-|		
    D|--0--3-0------0-----0--3---|		
    A|----------------1-0--------|		
    E|---------------------------|		 
    
    e|------------------------------------------|	
    B|------------------------------------------|	
    G|---------2-0-----------------2-0-----3-2--|	
    D|--0--2-3-----3-2-0-2--0--2-3-----3-2------|	
    A|------------------------------------------|
    E|------------------------------------------|…
  • Capo 2
    
    Em          D
    When I come home
                C             G
    I know it's you that I'll find
    Em         D           C
    Pacing the floors once again
    Em              D
    I know that I'm bored
                   C…
  • intro E
    Verse E A B (the first one starts on the A)
    Pre Chorus F#m B A E
    Chorus E B
    bridge B A
    
    use distorted power chords on everything but the verse, use ska chords
    
    and for punkrockers that don't know how to figure…
  • [Intro]: 
    1st guitar plays this 4x, until bass comes in:
    E------------------------
    B------------------------
    G------------------------
    D------------------------
    A----7-7-7-7-7-------5---
    E--5-----------5-7-7---7-
    
    Lead guitar…
  • Standard E Tuning
    
    Chorus - E B F#m D, E F#m A
    Chord Riff - B F#m Abm Am Abm E
    Verse - E B C#m Abm A B
    Pre-Chorus - A B E C#m, A B E
    Chorus
    Chord Riff
    Verse
    Pre-Chorus
    Transition - F#m Abm A (E)
    Chorus x3
    
    
    
    Chorus-
    
    Most…
  • Intro (acoustic w/ slide in background making a hawaiian kinda thing)
     
    -0-------------------------------------
    -0--5----------------------------------
    -1--6--6-------------------------------
    -2--6--7--4----------------------------
    -2--4--7--4----------------------------
    -0-----5--2----------------------------…
  • Bm       G        A         F#
    e|----2-------3--------5---------2-------------------------------------------|
    B|----3-------3--------5---------2-------------------------------------------|
    G|----4-------4--------6---------3-------------------------------------------|
    D|------------5--------7---------4-------------------------------------------|
    A|---------------------------------------------------------------------------|
    E|---------------------------------------------------------------------------|
    
    
    The…
  • Intro:
    Part 1
    Guitar 1
    E---------------------------------------
    B---------------------------------------
    G---76-------76---------76-------76-----
    D--0--75457-0--7579-11-0--75457-0---7---
    A---------------------------------------
    D---------------------------------------
    Guitar…
  • Chords:
       F#5 G5  A5  B5  D5
    |----------------------|
    |----------------------|
    |--------------4---7---|
    |--4---5---7---4---7---|
    |--4---5---7---2---5---|
    |--2---3---5-----------|
    
                    A5
    show me show me show…
  • Chords used in the song.
     Em  F#5 G5  A5  B5  C#5 D5  E5  
    |-------------------------------|
    |-------------------------------|
    |---------------------6---7---9-|
    |-2---4---5---7---9---6---7---9-|
    |-2---4---5---7---9---4---5---7-|
    |-0---2---3---5---7-------------|
    
    VERSE…
  • INTRO:
    
      Guitar 1:
         (E)
    e |-----------------------------------------
    B |-----------------------------------------
    G |-----------------------------------------
    D |----------------14------------14---------
    A |------14-----14--------14------------14--
    E…
  • Intro: 
    G-------------------------------- 
    D-------------------------------- 
    A--5-5-5-5-5-5-5-5-5-5-5-5-5-5-5- 
    E-------------------------------- 
    
    Verse: Play twice. 
    G-------------------------------------------- 
    D--------------------------------------------…
  • verse 1
    A-----------------3-3-3-3-5-5-5-5---------------------------------
    E-3-3-3-3-5-5-5-5---------------------------------------------------
    
    verse1 pt 2
    A2-2-2-2-5-5-4-5-4-2
    
    chorus's
    A-5-5-7-7-3-3-3-5-5-7-7-10-10-10-10
    
    verse…
  • [Intro]:  E   Esus4
    Intro Riff:
    E--0---------------------------------------0-2-4-5-7--
    B----0------------------------------------------------
    G------1s2-1--------------------------1-4-------------
    D------------2r---------------2-1-2-2-----------------
    A---------------------2-2s4s2-------------------------
    E-----------------0-4---------------------------------
    
    [Verse]:
    E------------------------
    B------------------------
    G---9---------6----------
    D---9----7----6----9-----
    A---7----7----4----9-----
    E--------5---------7-----…
  • C         G\\H           Am              G             C
    Now once again, they never seem to listen much at all
          G            F                 G            F
    Once again, they always seem to make you feel so small.…
  • Chorus A may be simpler than the actual song, because
    it's drowned out by the guitar.
    
    
    ~ = let note ring
    
    Verse A
    G: ----------------------------------------------
    D: ----------------------------------------------
    A: ----3---3-----0-1---1-------0-3---------------
    E:…
  • This song is fun to play, and it's got a cool progression. I
    hope you like it:
    
    Verse chords used:
       A   G#  F#m D   Dm  E   Eii
    E--5---4---2---2---1---0---4---|
    B--5---4---2---3---3---0---5---|
    G--6---5---2---2---2---1---4---|
    D--7---6---4---0---0---2-------|
    A--7---6---4-----------2-------|
    E--5---4---2-------------------|
    
    Verse:
    A…
  • Intro
       Am       F                  Am          F     Am
    e|-----------1--------------|--------------1-----5--------------------|
    B|-1---------1--------------|---1----------1-----5--------------------|
    G|-2---------2--------------|---2----------2-----5--------------------|
    D|-2---------3-----2h3-2----|---2----------3-----7--------------------|
    A|-0---3-2---3-----------3--|---0---3-2----3-----7--------------------|
    E|---------3-1--------------|-----------3--1-----5--------------------|
    "One…
  • Tuning: standard (EADGBe)
    
    Intro (low, three notes, distortion, let ring)
    e|-2-----------|
    B|--2----------|
    G|----3--------|
    D|-------------|
    A|-------------|
    E|-------------|
    
    
    Chorus - theres two guitars going…
  • Verse A
    e s s e e e e e e trip	e e e e e s s e e e e e e	trip
    e e e e
    
    
    G--------------------------|------------------|-----------------------|---------------------| 
    D---------------6--6--7--9-|------------------|-------------4-4-5-7---|---------------------|…
  • [Intro]: feedback
    
    [Verse]:
    E-------------------
    B-------------------
    G---7-------4-------
    D---7---7---4---4---
    A---5---7---2---4---
    E-------5-------2---
        D   A   B   F#
    
    D                 A             B
    The…
  • Intro
    G------------------------------------------------
    D----2-3-2---2-3-3-2-----------------------------
    A--3-------0---------0---------------------------
    E------------------------------------------------
    
    Verse (the rhythm…
  • Intro:
    Guitar 1:
    e|-----------------------------------------------------------------------------------|
    B|-----------------------------------------------------------------------------------|
    G|------4-1--------------------2-1----------4-1--------------------------------------|
    D|--2-2-----2-2/4-2/4-4/6-2--------4-2--2-2-----2-2/4-2/4-4/6-6/7-6-4-2---------2----|
    A|--------------------------2-------------------------------------------2-2-4-2------|
    E|-----------------------------------------------------------------------------------|
    
    Guitar…
  • Standard E Tuning
    
    Note: This song (as are many Goldfinger songs) is played with two
    guitar parts, although for most of the song there is only one main
    part.  The second guitar is used mostly for the "solo" as a kind…
  • begining/intro
    
    G------------------------------------------
    D------------8h7---------------------------
    A----------------888h10-10-10-88-77-66-55--
    E--10-10-10--------------------------------
    
    when the guitar kicks…
  • B F#  G  D A  A+  B+
    e|----------------5--2---------------------------------------------------|
    B|----------------5--3---------------------------------------------------|
    G|--4--------7----6--4---------------------------------------------------|
    D|--4--4--5--7-7--7--4---------------------------------------------------|
    A|--2--4--5--5-7--7--2---------------------------------------------------|
    E|-----2--3----5--5------------------------------------------------------|
    
    
    B…
  • tuning: standard, low to high (E,A,D,G)
    
    h=hammer on
    =slide down
    /=slide up
    _=let note run
    S=slap
    P=pop
    X=muted note
    
    listen to song for timing, length of the run on notes & placement of rests
    
    |---0h2--0h2-----0074--0h2--0h2---------|
    |-22---22---004h5----22---22---0040-----|
    |----------------------------------33---|
    |------------------------------------7-|
    
    |---0h2--0h2-----0074--0h2--0h2---------|
    |-22---22---004h5----22---22---0040-----|
    |----------------------------------33---|
    |------------------------------------7-|
    
    |----------------------------------------|
    |-----------004h5--------------0040--5---|
    |------------------52--------------/3----|
    |-003h5003h5-----33--003h5003h5-------7-|
    
    |--------------------4-2-0---2------|
    |------------------2-------00-0--5--|
    |---2-0---5--------------------33-3-|
    |-0-----3---2-3-2/------------------|
    
    |---------------------4-2-0---2------|
    |------------4-5-4/-2-------00-0--5--|
    |-/7-----2-5--------------------33-3-|
    |----0-3-----------------------------|
    
    |---------------------4-2-0---2------|
    |-----------445544/-2-------00-0--5--|
    |-----0-2-55--------------------33-3-|
    |-0-3--------------------------------|
    
    |---------------------4-2-0---2------|
    |-------------------2-------00-0--5--|
    |-/7-2-0---5--------------------33-5-|
    |--------3---2-3-2/------------------|
    
    |---0h2--0h2-----0074--0h2--0h2---------|
    |-22---22---004h5----22---22---0040-----|
    |----------------------------------33---|
    |------------------------------------7-|
    
    |--------------------4-2-0---2------|
    |------------------2-------00-0--5--|
    |-----0-2-5--------------------33-3-|
    |-0-3-------2-3-2/------------------|
    
    |--------------------4-2-0---2------|
    |-2----------------2-------00-0--5--|
    |---2-0---5--------------------33-3-|
    |-------3---2-3-2/------------------|
    
    |-----1---------------1------------|
    |---2---2-----1-----2---2-----1111-|
    |-4---------2---2-4---------2------|
    |---------4---------------4--------|
    
    |-----1-----------------------|
    |---2---2-----1---------------|
    |-4---------2---2-0_-0_-0_-2_-|
    |---------4-------------------|
    
    |-----------------------------------------|
    |-----------004h5--------------0040--5--5-|
    |------------------52--------------/3-----|
    |-003h5003h5-----33--003h5003h5-------7--|
    
    |---------------------------------|
    |-----------004h5-5-5-------------|
    |----------------3-------------33-|
    |-003h5003h5-------7-003h5003h5---|
    
    |---0h2--0h2----0074--0h2--0h2---------|
    |-22---22---004/----22---22---0040-----|
    |---------------------------------33---|
    |-----------------------------------7-|
    
    |---------------------4-2-0---2------|
    |-2---------4-5-42-2-------00-0--5--|
    |-------2-5---------------------33-3-|
    |---0-3------------------------------|
    
    |---------------------4-2-0---2------|
    |------------4-5-4/-2-------00-0--5--|
    |-/7-2-0---5--------------------33-3-|
    |--------3---------------------------|…
  • INTRO
    Played with slight distortion throughout.
    About 10 seconds of faint music then guitar enters
    
    
                     1,2,3,4...   Band enters
    e-|--2-2-2-2-0--|-2-2-2-2-0--|-2-2-2-2-0--|-3-3-3-3-3-|
    B-|--3-3-3-3-3--|-3-3-3-3-3--|-3-3-3-3-3--|-3-3-3-3-3-|
    G-|--2-2-2-2-2--|-2-2-2-2-2--|-2-2-2-2-2--|-0-0-0-0-0-|
    D-|-------------|------------|------------|-----------|
    A-|-------------|------------|------------|-----------|
    E-|-------------|------------|------------|-----------|
    
    
    e-|-5-5-5-5-5-|-3-3-3-3-3-|-2-2-2-2-0-|-3-3-3-3-3-----|
    B-|-2-2-2-2-2-|-3-3-3-3-3-|-3-3-3-3-3-|-3-3-3-3-3-----|
    G-|-2-2-2-2-2-|-0-0-0-0-0-|-2-2-2-2-2-|-0-0-0-0-0-----|
    D-|-2-2-2-2-2-|-----------|-----------|---------------|
    A-|-----------|-----------|-----------|---------------|
    E-|-----------|-----------|-----------|---------------|
    
    
    e-|-5-5-5-5-5-|-3-3-3-3-3-}
    B-|-2-2-2-2-2-|-3-3-3-3-3-|
    G-|-2-2-2-2-2-|-0-0-0-0-0-|
    D-|-2-2-2-2-2-|-----------|
    A-|-----------|-----------|
    E-|-----------|-----------|
    
    
    VERSE
    You…
  • Standard Tuning
    e
    B
    G
    D
    A
    E
    
    Key D5 G5 A5 C5 F5 E5 B5 
    e|------------------------|
    B|------------------------|
    G|--7--------5-----9------|
    D|--7--5--7--5--3--9--9---|
    A|--5--5--7--3--3--7--9---|
    E|-----3--5-----1-----7---|
    
    There…
  • A5                   G5                   D5                   E5
          5 7 7 x x x          3 5 5 x x x          x 5 7 7 x x          x 7 9 9 x x
    
              C5                   B5                 A5open…
Наверх