Аккорды «Goo Goo Dolls»

Goo Goo Dolls
Одна из наиболее выдающихся музыкальных историй десятилетия - это Goo Goo Dolls. Группа доказала, что общие творческие усилия, тяжёлая работа и упорство действительно могут поднять группу на пик популярности... и удерживать её там. Жёсткая сосредоточённость на написании песен и безупречное исполнение вознесли музыкальное трио к вершине профессионализма, также как и создание достаточного импульса позволило группе перейти в следующее тысячелетие с частью лучшей музыки их карьеры. Эта американская… Читать полностью... Одна из наиболее выдающихся музыкальных историй десятилетия - это Goo Goo Dolls. Группа доказала, что общие творческие усилия, тяжёлая работа и упорство действительно могут поднять группу на пик популярности... и удерживать её там. Жёсткая сосредоточённость на написании песен и безупречное исполнение вознесли музыкальное трио к вершине профессионализма, также как и создание достаточного импульса позволило группе перейти в следующее тысячелетие с частью лучшей музыки их карьеры. Эта американская команда, исповедующая так называемый "мейнстрим", была создана в 1985 году в Буффало, где она начала свой старт с выступлений в местных клубах. В её состав вошли Johnny Rzeznik (вокал, гитара), Robby Takac (вокал, бас) и George Tutuska (ударные). Первоначально она называлась The Sex Maggots. Новое название было позаимствовано из журнала "True Detective". Необыкновенный успех группы обусловлен следованием одному музыкальному направлению на протяжении всего творчества. Дебютом в 1987 году стал альбом с одноимённым названием Goo Goo Dolls. Затем в 1988 последовал второй релиз, "Jed", замеченный критиками и получивший хорошие отзывы. Эта пластинка была выпущена лос-анжелесским инди-лейблом "Metal blade". Спустя некоторое время популярность группы значительно выросла, что привлекло к ней внимание крупных записывающих фирм. Поэтому следующий диск, "Hold me up", был издан на "Warner bros". После его выхода группа два года беспрерывно колесила по Штатам, зарабатывая себе славу концертного коллектива. Следующий альбом, "Superstar car wash", хоть и был классно сработан, но продавался не очень хорошо. Тем не менее, музыканты не стали вешать нос, а продолжали упорно работать, приступив к записи нового материала. В 1995 году Goo Goo Dolls совершили прорыв, выпустив отличнейшую пластинку "A boy named Goo". Сопутствующий сингл, Name, оказался на верхней строчке хит-парадов. К тому времени Тутуска свалил из группы, а на его месте оказался Mike Malinin. Команда записала кучу саундтреков, в том числе к таким фильмам, как "Эйс Вентура 2", "Томми Бой" и "Бэтмэн и Робин". После этого Goo Goo Dolls сделали трёхлетнюю паузу, и многие уже начали сомневаться, что они когда-нибудь смогут повторить свой успех. Однако их песня Iris, прозвучавшая в саундтреке к фильму "City of angels" развеяла эти опасения. Эта композиция оказалась ещё круче, чем Name. Почти год эта вещица находилась на верхушке различных чартов и стала победительницей конкурса "Most Played Song" в 1998 году, а также получила премию BMI в номинации "Most Played Song From A Film". Группа заняла первое место в чартах "Airplay", "Modern Rock", "Modern Adult", "Adult Top 40" и "Top 40 Track". "Iris" была также представлена в трех номинациях "Grammy": "Запись года", "Песня года" и "Лучший поп-проект исполнителя или группы". Клип на эту песню долгое время крутился на MTV. "Slide", следующая за Iris, также достигла вершин тех же чартов, а также увеличила рост репутации Goo Goo Dolls, как создателей новой и доступной музыки с необычно широким кругом слушателей.. В 1998 году наконец-то появился на прилавках магазинов долгожданный очередной лонгплей группы, "Dizzy up the girl". Этот диск сопровождался уже тремя хитовыми синглами - Slide, Broadway и Black balloon. Альбом, принесший рекордные сборы и ставший мультиплатиновым, был поддержан практически безостановочным мировым туром, обеспечившим "куклам" международное признание и множество поклонников в Европе, Азии и Австралии. Регулярные, насыщенные энергией концерты Goo Goo Dolls в Америке, собиравшие до 20 тыс. зрителей, сделали группу одним из самых популярных музыкальных явлений в этой стране. Репутация была закреплена большим успехом песни Black balloon, третьим последовательным хитом с Dizzy up the girl. Участники группы считают, что этот альбом - только начало творческого пути после двенадцати лет, проведённых вместе. Не столь удивительно, что "куклы" были предметом внимания "MTV ' Biorhythm" и "Fanatic", также как и "VH-1's Behind the Music". Казалось бы Goo Goo Dolls находились на волне успеха, однако прошло целых четыре года до выхода новой студийной работы, "Gutterflower". Продюсером нового альбома, который вышел в Америке 9 апреля 2002 года стал Rob Cavallo (Green Day, Eric Clapton). Первый сингл Here is gone ещё только начинает своё движение в мировых чартах, но уже сейчас понятно, что группа изменила свое привычное звучание. "Сложно назвать это возвращением к хард-року 80-х, но музыка группы стала более жёсткой и громкой, чем она была на последних альбомах Goo Goo Dolls", - говорит о своей работе фронтмен группы Джонни Рзезник. Потрясающее экспериментальное видео на первый сингл снял режиссёр Francis Lawrence, работавший с Jennifer Lopez, Janet Jackson и Aerosmith. Дискография: 1. The Goo Goo Dolls 1987 2. Jed 1989 3. Hold me up 1990 4. Superstar car wash 1993 5. A boy named Goo 1995 6. Dizzy up the girl 1998 7. Gutterflower 2002 8. Let Love In 2006 9. Something for the rest of us 2010 Скрыть...
Популярные аккорды Goo Goo Dolls:
алфавиту | просмотрам | случайно
  • Drop the low E to D
    Raise the G string to A
    and drop the B string down to A
    
    
    Verse:
     
    -----0---------0---------0----------0------0-------                       
    -------0---------0---------0------0-------0--------
    ---0-----0---0-----0---0-----0---------------------
    ---------------------0-----------------------------
    -0------------------5------------------------------
    -7---------6--------------------4------2------0----…
  • DADDDD
    
    
    INTRO (x2):
    D|---0---0---0---0---0---0---0---0---0---0------|
    D|---0---0---0---0---0---0---0---0---0---0------|
    D|---0---0---0---0---0---0---0---0---0---0------|
    D|--12--12--12--12--12--11--11--11--11--11/12---|
    A|----------------------------------------------|
    D|----------------------------------------------|
    
    D|---0---0---0---0---0---0---0---0---0---0---0---0---0---0---|
    D|---0---0---4---4---4---4---4---2---0---0---0---0---0---0---|
    D|---0---0---0---0---0---0---0---0---0---0---0---0---0---0---|
    D|---0---0---5---5---5---5---5---4---0---0---0---0---0---0---|
    A|-----------------------------------------------------------|
    D|-----------------------------------------------------------|
    
    
    VERSE:
    D|--------0-------------0-------------0-------------0------------|
    D|-----------0-------------0-------------0-------------0---------|
    D|--------------0-------------0-------------0-------------0------|
    D|---------------------------------------------0-----------------|
    A|---------------------------------------------------------------|
    D|---0-------------2-------------5-------------------------------|
    
    D|---0-------------0-------------0-------------0---------|
    D|------0-------------0-------------0-------------0------|
    D|---------0-------------0-------------0-------------0---|
    D|----------------------------------------0--------------|
    A|-------------------------------------------------------|
    D|--9----------7-------------5---------------------------|
    
    
    Chorus:
    D|---0---0---0---0---0---0---0---0---0---0---0---0---0---|
    D|---0---0---0---0---0---0---0---0---0---0---0---0---0---|
    D|---0---0---0---0---0---0---0---0---0---0---0---0---0---|
    D|---0---0---0---0---0---0---0---0---0---0---0---0---0---|
    A|---x---x---x---x---x---x---x---x---x---x---x---x---x---|
    D|---9---9---9---9---7---7---7---7---5---5---5---5---5---|
    
    
    Intro…
  • Db-Ab-Db-Ab-Db-F
    
    
    INTRO
    F--------------------------------------------------
    Db---0h2-2-2-2-2-0-0--0h2-2-2-2-0-0----------------
    Ab-----------------------------------------(2x)----
    Db---0h2-2-2-2-2-0-0--0h2-2-2-2-0-0----------------
    Ab----------------------------------7-5------------
    Db----------------------------------7-5------------
    
    
    VERSE
    
    F---0---0----0---0-----------------
    Db--0---0----0---0-----------------
    Ab--0---0----0---0-----------------
    Db--0---0----0---0-----------------
    Ab--9---12---7---5-----------(3x)--
    Db--9---12---7---5-----------------
    
    
    PRECHORUS
    
    F---0-0-0--0----0-0-0-0--------
    Db--0-0-0--0----0-0-0-0--------
    Ab--0-0-0--0----0-0-0-0--------
    Db--0-0-0--0----0-0-0-0--------
    Ab--2-9-12-0----2-9-7-5--------
    Db--2-9-12-0----2-9-7-5--------
    
    
    CHORUS
    F--0-0-0-0-0-------------------
    Db-0-0-0-0-0-------------------
    Ab-0-0-0-0-0-------------------
    Db-7-7-4-0-0--(2x)-------------
    Ab-5-4-2-7-5-------------------
    Db-------7-5-------------------
    
    
    Reapeat…
  • Tuning: (low to high) Db Ab Db Ab Db Eb
                     or   C# G# C# G# C# A#
    
    
    INTRO:
    eb|---0---0-0-0-0-|---0---0-0-0-0-|
    Db|---0---0-0-0-0-|---0---0-0-0-0-|
    Ab|---0---0-0-0-0-|---0---0-0-0-0-|
    Db|---0---0-0-0-0-|---0---0-0-0-0-|
    Ab|---0---0-0-0-0-|---7---7-7-7-7-|
    Db|---0---0-0-0-0-|---7---7-7-7-7-|…
  • Chords:
    
    E5    - 022xxx   Em    - 022000   Gmaj7 - x2x032
    C5    - x355xx   G5(2) - 3x0033   Dsus  - x0023x
    G5(1) - 355xxx   Am    - 002210
    F#5   - 244xxx   Cadd9 - X32033
    
    
    Intro:
    e|-----------------------|
    B|-----------------------|
    G|-----------------------|…
  • A5-G5-F5-G5
    A5-G5-F5-G5
    
    
    Verse:
    A5 G5   F5   G5  A5  G5 F5 G5
    All our time has gone
    A5 G5    F5  G5   A5  G5 F5 G5
    Here but now it's gone
    
    
    Chorus:
    F5            G5       A5    G5
    Seasons don't fear the reaper…
  • e--0--0--0-0-0-0-0---0--0---0--0--0--0--0-0-----
    B--0--0--0-0-0-0-0---0--0---0--0--0--0--0-0-----
    G--1--1--2-1-2-2-4---4--2---1--1--2--4--4-4-----
    D-----------------------------------------------
    A-----------------------------------------------
    E-----------------------------------------------
    (4…
  • Intro: B-F-E (2x)
    
    
    B		               F              E
    It was only last june when her old man ran away
    B		            F                        E
    She couldn't stop cryin' , she knew he was goin' to stay
    B	       F…
  • Intro:
    
    B5-B5/Bb-G#5-F#5
    B5-B5/Bb-G#5-F#5
    B5-B5/Bb-G#5-F#5
    B5-B5/Bb-G#5-F#5
    
    
    Verse:
    B5                          G#5          F#5
    I've got an ugly liver from drinking too much
    B5                           G#5…
  • STANDARD TUNING!!
    
    ###################
    Chords used:
    
      Am              
    e|--0- 
    B|--1-
    G|--2-
    D|--2-
    A|--0-
    E|--X-
    
      Cadd9              
    e|--0- 
    B|--0-
    G|--0-
    D|--2-
    A|--3-
    E|--X-
    
       A5              
    e|--x- 
    B|--x-
    G|--x-
    D|--7-
    A|--7-
    E|--5-…
  • Intro: (with flanger/phaser or such effect)
    e--------------------------------------------------------------------
    B--------------------------------------------------------------------
    G---7------7-7-7-8------8-8-8-7------7-7-7-8-----(feedback)----------
    D---7------7-7-7-8------8-8-8-7------7-7-7-8-------------------------
    A---5------5-5-5-6------6-6-6-5------5-5-5-6-------------------------
    E--------------------------------------------------------------------
    
    
    (Riff…
  • Intro:
    
    Guitar 1-
    G5/A5-A5-A5 D5-D5-D5-C#5-B5-A5-A5 G5-A5 (3x)
    B5
    
    Guitar 2-
    e---------------------------------------------------------------------
    B---------------------------------------------------------------------
    G---6/7-7-7-7-7-7-6--/7-7-7-7-7-7-6--/7-7-7-7-7-7-6-6/7-6/7-7-7-7-----
    D---------------------------------------------------------------------
    A---------------------------------------------------------------------
    E---------------------------------------------------------------------
    
    							(second…
  • Chords:
    E - 022100
    C#m - x46650
    G#m6 - 466x00
    A2 - 577600
    
    
    Intro:
    (riff)
    e -----0------0------0------0-------0------
    B -----------------------------------------
    G -----------------------------------------
    D -6h7----6h7----6h7----6h7----6h7---------
    A…
  • Intro: C B A G F E G
    
    
    C	           B
    If I could walk a straight mile
    A			  G		
    I could write it down in shorthand
    	F  	E
    I could show you
    G
    If you want me to
    
    C		B
    And if I had an hourglass
    A			  G
    I'd save the grains of…
  • Tuning: E ->down to-> D#
            B  ->up to->  D#	You might need to
            G  ->up to->  G#	play around with a
    	D  ->up to->  D#	capo to prevent
    	A  ->up to->  A#	snapping a string
    	E ->down to-> D#
    
    
    -INTRO-
    
    d#|-----0-------0-------0-------0--------|
    D#|-------0-------0-------0---0-----0----|
    G#|--------------------------------------|
    D#|---5-------7-------5------------------|
    A#|-7-------5-------3--------------------|
    D#|-------------------------5-----4------|
    
    d#|-----0-------0-------0-------0--------|
    D#|-------0-------0-------0---0-----0----|
    G#|--------------------------------------|
    D#|---5-------7-------5------------------|
    A#|-7-------5-------3--------------------|
    D#|-------------------------5-----4------|
    
    
    -VERSE…
  • OE5(VII) - x799xx
    F#5(IX) - x9(11)(11)xx
    A5(VII) - xx79(10)xx
    
    
    Intro:
    
    (riff 1)(Guitar 1)
    
    e ---------------------|---------------|-------------------|--------
    
    B ---------------------|---------------|-------------------|--------
    
    G…
  • E5(VII): x799xx
    
    
    Intro:
    (r.f. 1)
    G#5 / / / E5(VII)-Eb5-B5
    G#5 / / / B5-E5-F#5
    (Play 2 times)
    
    
    (verse, r.f. 1)
    If you never had it then 
    You don't know how bad it is 
    There is nothing like it, well 
    Needless talk then,…
  • Tune B up a half step to C
    
    
    Rhythm  Fig. 1 
    
    e  ---------------------------------------------------------
    C ----4-----3-----------------------------------------------
    G ----4-----3----4---------2-----4-----6------4-------------
    D…
  • F5(IX) - x9(11)(11)xx
    E5(VII) - X799xx
    Bb5/A - x033xx
    
    
    Intro:
    F#5-C5-D5-C5 (2x)
    
    
    Verse: (play intro chords)
    I've been around...And I realize it's always the same 
    All the time...And I realize it's all been unchanged 
    What…
  • E	   C#m		   G#m		  Asus2
    I hung your picture on the wall and that's all it is...
    E	   C#m		   G#m		  Asus2
    I break my fingers to make a call and that's all it is...
    E	   C#m		   G#m		  Asus2
    I know you're living way out…
  • Intro:
    D5    A5 D5
    D5    A5 D5 
    G5    D5
    D5    A5 D5 
    
    
    Verse: (palm mute)
    D5                   A5               D5
    Early in the evening just about suppertime 
    D5                             A5            D5
    Over by the…
  • (rhythm figure 1)
    e ----------------- 
    B ----------------- 
    G -----0-----0----- 
    D ---------0---0--- 
    A ---2---3-------0- 
    E -3--------------- 
    
    
    (rhythm figure 2)
    e -----------------|-----------------
    B -----3-----3-----|-----------------
    G…
  • Tuning:
    e down to d
    b up to d
    g same
    d same
    a same
    e down to d
    
    
    Chords used:
    
    d-0-----------
    d-0-----------
    g-0-----------       (G5 open)
    d-5-----------
    a-5-----------
    e-5-----------
    
    d-0-----------
    d-0-----------
    g-0-----------…
  • E5 - x799xx
    
    
    Verse:
    E5                          
    Oh the storm is threatening
    D5-E5
         My very life today
    D5-E5
         If I dont get some shelter
    D5-E5
         I'm gonna fade away
    
    
    Chorus:
    E5  D5       C5…
  • E5(VII) - x799xx
    B5/Bb - x144xx
    
    (intro keyboard)
    chords: G#m-E
    
    
    (verse)
    G#5
    I've been where the river ran 
    E5(VII)
    I'm drownin' in a sunless sea
    G#5 
    Sleep has helped me find my end
    E5(VII)
    You promised me you'd set me…
  • E5(VII) - x799xx
    
    
    Intro:
                        (feedback pitch)
    
    e --------------------(16)brbrbrbr--------
    B -9b10rbrbrbrbr--------------------------
    G ----------------------------------------
    D ----------------------------------------
    A…
  • Tuning (low to high): E A D G C G
    
    Chords:
    Em:      022xxx
    A:       0022xx
    A2:      577000
    F:       133000
    C:       x35000
    G:       355000
    B:       x24000
    D:       x57000
    
    
    Intro:  Em
    
    
    First Verse:
    Em
    You're cynical and…
  • A5(V) - 577xxx
    E5(VII) - x799xx
    B5(VII) - 799xxx
    G5(X) - x(10)(12)(12)xx
    D5(X) - (10)(12)(12)xxx
    A5(XII) - x(12)(14)(14)xx
    
    
    Verse:
    
    D5-A5-D5-A5-D5-A5
    F#5-A5
          Messed up yeah
    D5-A5-D5-A5-D5-A5
    F#5-A5
          Messed up…
  • Tuning DGCFAE
    
    Chords
    C5   - x577xx      F5  - 35xxxx
    D5b  - x79xxx      G5  - 57xxxx
    Bb5  - 8(10)xxxx   D5a - 02xxxx
    
    
    Intro: (listen for timing)
                 %        *
    E|-----------|--0--------|-------------------------|
    A|-----------|--0--------|-----0-------------------|
    F|--7--7--7--|--0--------|--0-----------0-----0----|…
  • Chords:
    F#5(IX) - x9(11)(11)xx
    E5(VII) - x799xx
    
    
    Riff:
    e ---------------------
    B ---------------------
    G ---------------------
    D ---------------------
    A --5--4h5p4h5p4-------
    E ---------------------
    
    
    Verse:
        E5(VII)
    Outta…
  • standard tuning
    
    Chords:
    D     - xx0232    G/D    - xx0787   G     - 320033
    D5    - xx023x    G5/D   - xx003x   Csus2 - x3x033
    Cadd9 - x32033    Dsus4  - xx0233   Dsus2 - xx0230
    A     - x0222x
    
    
    Intro: (Listen for timing)
    D…
  • Tuning:
    
    Chords:
    D5 - x577xx
    Db5 - x688xx
    G5 - xx578x
    C5 - x355xx
    A5 - x022xx
    E5- x799xx
    
    
    Intro:                                                  (riff 1-----)
    e -----2-3-2--0----|-----2-3-2--0----|-----2-3-2--0----|-0-0--3-3--5---
    B…
  • Intro:
    E5
    
    
    Verse:
    E5
    Friday night, I'd just got back 
    I had my eyes shut, was dreaming about the past
    
    
    G5
    (bass riff) 
    e -----------------------------------
    B -----------------------------------
    G -----------------------------------
    D…
  • e-----------------0-----------------------
    b----1--1-1-1-1-1--1----1---1-1-1-1-1--3-1
    g--0--0---------------0---0---------------  repeat 
    d-----------------------------------------
    a-----------------------------------------
    e-----------------------------------------
    
    another…
  • Intro:
    	B5(VII)-B5(VII)-B5(VII)                           >
    e  ----14p11-------------------------------------------------------
    B ------------14p11-----------14p11--------------------------------
    G --------------------13p11----------13p11--------13p11------------
    D…
  • Tune your b to c (ala So Far Away)
    
    
    (intro)
    e -0----0---0-0-0-0--0-----|-0---0-0-0--0-----------------
    C -0----0---0-0-0-0--0h2p0-|-0---0-0-0--0-----------------
    G -2----2---2-2-2-2--2-----|-2---2-2-4--2-----------------
    D…
  • E5(VII) - x799xx
    
    
    Intro: (riff 1)
    e -------|---------------|--------------|--------------|-----------
    B -------|---------------|--------------|--------------|-----------
    G -------|--5------------|--------------|--5-----------|-----------
    D…
  • Intro:
    (lead)
    e  -------------------------5h7p5-|---------------------------
    B  -------------------------------|---------------------------
    G  -------------------------------|---------------------------
    D  -------------------------------|---------------------------
    A…
  • Tune your b to c (ala So Far Away)
    
    Chords:
    Am - x02200 or 577x00
    G4/6 - 355400
    F7 - 133200
    C - x35500
    
    
    Intro: viola arranged for guitar
    (standard tuning)
    
    Note: Apply generous amounts of vibrato and slide into and out…
  • Chords:
    E5(VII) - x799xx
    
    
    Intro:
    (r.f. 1)
    C#5-B5-C#5   E5    A5 (play 4 times)
    
    
    Verse: (play r.f. 1)
    What kind of situation 
    Have I brought upon myself 
    Some kind of bad reaction 
    Blamed it all on someone else
    Oh well
    
    
    Chorus:
    E5…
  • Tuning C# G# C# F# C# F#
    capo 2nd fret
    
    
    Intro & Verses
    
             C      Csus   C2     G1      
    F#|------0-0-0--0-0-0--0-0-0--0-0-0--
    C#|------0-0-0--0-0-0--0-0-0--0-0-0--
    F#|------x-x-x--x-x-x--x-x-x--x-x-x--
    C#|------5-5-5--5-5-5--5-5-5--5-5-5--
    G#|--0-2-3-3-3--2-2-2--0-0-0--5-5-5--
    C#|---------------------------5-5-5--
    
    
    Pre…
  • D - xx0x
    A - x0xx
    E - 0xxx
    
    
    Intro:   
    G ----------
    D ----------
    A ----------
    E --1///----G ---------------------------------|---------------------------------
    
    D -0-0-0-0-0-0-0-0-0-0-0-0-0-0-0-0-|---------------------------------
    A…
  • Intro / Chorus (riff 1):
    ---------0-------------------0-------------------------------
    ---------0-------------------0-------------------------------
    --4--------------2-2--2--2---2--------1---11-11-118-8-84-4-
    --4--------------2-2--2--2---2--------2----9--9--96-6-62-2-…
  • Intro - Guitar only
    
    Chorus 1 & verse
    G |-------------------------------|
    D |---------0-0-0-0---------------|
    A |-----------------3-3-3-3-3-3-3-|
    E |-0-0-0-0-----------------------|
    
    
    Bridge
    G |-------------------------------------------------------------------------------------------|
    D…
  • Tuning: Eb-Ab-Db-Gb-B-eb
    
    (EADGCe down 1/2 step)E5(VII): x799xx
    
    F5(III): xx355x
    
    
    Intro/Verse: 
    eb --0---0-0-x-0-00-0-0--|--0--0-0-0-0-0--0--0-0-0--0--0----
    B  --4---4-6-x-6-77-7-7--|--4--4-6-6-7/9--9/11-9-9/11-11----
    Gb…
  • F#5(IV) - xx467x
    F#5 - 244xxx
    
    
    Intro:
    D#5-F#5(IV)-B5-C#5
    D#5-F#5(IV)-C#5
    D#5-F#5(IV)-B5-C#5
    D#5-F#5(IV)-C#5-B
    
    
    Verse:
    D#5      F#5(IV)
    I'm on a mission baby 
    B5              C#5
    I'm not hearing what you're saying 
    D#5…
  • Intro:
    F#---------------------
    B----------------0-----
    G------0-----------0---
    D----2---2-----2-------
    A------------3---------
    E--0-------------------
      (repeat 4 times)
    
    
    Verse:
    F#5			    D5
    I'll open up my head awhile…
  • Standard Tuning
    
    Chords:
    E5  - x79900    A5 - x02200
    C#5 - x46600    B5 - x24400
    E   - 022100    A  - x02220
    
    
    Intro
    Guitar 1
    e|---0-----2-----4--|--2-0-2-0-2-0-|-----0------2----0-|------2---0----
    B|------0-----0-----|--------------|-------0-----------|-0-----------0-
    G|-4----------------|--------------|--2------2----2----|---2-----------
    D|------------------|--------------|-------------------|---------------
    A|------------------|--------------|-------------------|---------------
    E|------------------|--------------|-------------------|---------------
    
    Guitar…
  • Riff:
    e -----------------
    B -0-1-3--1--0-----
    G -0-0-0--0--0-----
    D -0-0-0--0--0-----
    A -----------------
    E ----------------- 
    
    Chords:
    Em7 - 022033
    A4/7 -x02233
    
    
    Intro:
    e -------------------------------------
    B -------------------------------------
    G…
  • Intro:
    
    (riff 1)
    e-------------------|------------------
    B---7---7-4-5-4---7-|---7-5-4-5-4------
    G---4---4-4-4-4---4-|---4-4-4-4-4------
    D-------------------|------------------
    A-------------------|------------------
    E-------------------|------------------…
  • Intro:
    e ------3----------3----------3----------3-------
    B ----3---3------3---3------3---3------3---3-----
    G ----------0----------0----------0----------0---
    D -------------0---------------------------------
    A --3---------------------2----------3-----------
    E…
  • Tuning: STANDARD
    
    Key:
    
    / = Slide Up
     = Slide Down
    b = Bend Up
    h = Hammer On
    p = Pull Off
    r = Release Bend
    x = Block Out
    
    
    Intro x2:
    (Guitar 1)
    E|-------------------------------|
    B|-------------------------------|
    G|-------------------------------|
    D|---------2h4--2-1--------------|
    A|2b4p2-------------2b42--------|
    E|------------------------0-2b3r0|
    
    (Guitar…
  • G5(X) - x(10)(12)(12)xx
    F#5(IX) - x9(11)(11)xx
    D5(X) - (10)(12)(12)xxx
    
    
    Intro:
    1, 2, 3, 4!
    Eb5-E5-F5-F#5
    G5(X)-G5(X)-G5(X)-F#5(IX)
    D5-B5-B5-A5-A5    G5(III)
    G5(X)-G5(X)-G5(X)-F#5(IX)
    D5-B5-B5-A5-A5    G5(III)
    G5(X)-G5(X)-G5(X)-F#5(IX)
    D5-B5-B5-A5-A5…
  • Intro:
    B5   D5-C#5-B5-A5 G5   A5 (4x)
    
    
    Verse:
    G5        A5              D5            A5
      One too many times I've seen you in a frown
    G5              A5           D5
      You hold your head down in despair
    G5    A5…
  • Tuning: Standard
    
    
    Intro: D x 8
           D E7 G A
           D E7 G A7
    
    
    Verse 1
    [D]Well she was an [E7]American girl. 
    [G]Raised on [A]promises
    [D]She couldn't help [E7]thinking that there was
    a [G]little more to life [A]somewhere…
  • Tune your high e to F# (ala On The Lie)
    
    Chords:
    E5(VII) - x799xx
    E5/9 - x79(11)xx
    B4 - x24400
    C# - x46600
    E - x79900
    
    
    (intro - riff 1)
    F# ----------------------------|-------------------------
    B  ----------------------------|-------------------------
    G…
  • Intro:
    (r.f. 1)
    
      E5 E5 D5 E5  B5 Bb5 A5   E5 
    e ------------------------------------
    B ------------------------------------
    G -9-9--7--9--------------------------
    D -9-9--7--9---9--8---7---------------
    A -7-7--5--7---9--8---7---------------
    E…
  • Chords:
    G5 - 355xxx
    F#5 -244xxx
    E5 - 022xxx
    B5 - x244xx
    C5 - x355xx
    
    
    Intro:
    e -3b-3b-3b-3b-3b-2----|-3b-3b-3b-3b-3b-2--0--
    B ------------------3--|----------------------
    G ---------------------|----------------------
    D…
  • Intro: ”And I’ve had to fight..” 
    Repeat for whole of Verse 1
    
    e ----------------------------------
    B ----------------------------------
    G ----------------------------------
    D ----7--------9----7---------------
    A -------7--------------------------
    E…
  • G	 D		     E7		 C(add9)
    Happy, smilin', cryin' upwards to my past,
    G	 	  D		        E7		      C(add9)
    I guess those stormy gray skies simply couldn't last.
    G	    D		    E7		    C(add9)
    And now I find myself a-tugging at…
  • Chords:
    E5 - xx245x
    D5 - xx023x
    A  - x02220
    A2 - x02200
    A4 - x02230
    
    
    Riff:
    e ----------------
    B ----------------
    G ----------------
    D ----------------
    A ---2--4--2--5---
    E ----------------
    
    
    Intro:
    A-A2-A-A4  E5  D5 (4x)
    
    
    Verse:
    A-A2-A-A4…
  • Standard Tuning
    
    Chords:
    F#5 - 244XXX     A5 - X022XX
    C#5 - X466XX     E5 - 022XXX
    B5 - X244XX
    
    
    Intro:
    e|-------------------|------------------|--------------------|
    B|-------------------|------------------|--------------------|
    G|--6--6--4--4--4--2-|--2--2----2--2--2-|--4--4---2--2--2----|
    D|--6--6--4--4--4--2-|--2--2----2--2--2-|--4--4---2--2--2----|
    A|--4--4--2--2--2--0-|--0--0----0--0--0-|--2--2---0--0--0--2-|
    E|-------------------|------------------|--------------------|
    
    e|-------------------
    B|-------------------
    G|-------------------…
  • Intro:
    e-------------------------|--------------------------------
    B-------------------------|--------------------------------
    G-------------------------|--------------------------------
    D-----------------------3-|--------------------------------
    A--5--3-3-3--5-5-5--3-5---|--5--3-3-3--------------3-------
    E-------------------------|------------5-5-5--3-5----------
    (3…
  • Chords:
    E5(vii) - x799xx
    
    Riff 1:                   Riff 2:
    e ------------------      e -----------------
    B ------------------      B -----------------
    G ------------------      G -----------------
    D ------------------…
  • E5: x799xx
    F#5: x9(11)(11)xx
    E5/Eb: x699xx
    
    
    (verse)
    B5            E5              F#5
    I called you up all night til mornin' 
    B5      E5             C#5         E5  D#5  C#5  D#5
    Left my house by noon today, and I saw you…
  • F#5(IX) - x9(11)(11)xx
    
    Intro:
    F#5(IX)-D5-B5 (six times)
    
    
    Verse:
    D5
    I don't know what you want 
    F#5(IX)
    You and your silly stomp
    D5
    You shake your back for me
    E5(VII)
    Then wish that you were dead
    D5
    And every single time
    F#5(IX)
    you…
  • Intro:(rest 16 beats)
    
    e ----------------------------
    B ----------------------------
    G ----------------------------
    D ----------------------------
    A ----------------------------
    E -5-6-7--0-2-4-5--0-2-3--2---
    (play four…
  • Verse:
       G5              C5               
    Up yours stop your whinin' 
            G5              C5    
    Feeling swell I'm doing fine 
    
    
    Chorus:
    D5           C5           D5              C5   
    Fuck your suicide its all bull…
  • Intro w/ distortion
    ------------------------------------------------------------------------
    ------------------------------------------------------------------------
    --6---9---4----4---6---9-9---4--2---------------------------------------
    --6---9---4----4---6---9-9---4--2---------------------------------------
    --4---7---2----2---4---7-7---2--0---------------------------------------
    ------------------------------------------------------------------------
    
    
    ------------------------------------------------------------------------
    ------------------------------------------------------------------------
    --6---9---4---6---2-----2-2-2---4--4------------------------------------
    --6---9---4---6---2-----2-2-2---4--4------------------------------------
    --4---7---2---4---0-----0-0-0---2--2------------------------------------
    ------------------------------------------------------------------------------------------------------------------------------------------------
    ------------------------------------------------------------------------
    --6---9---4----4---6---9-9---4--2---------------------------------------
    --6---9---4----4---6---9-9---4--2---------------------------------------
    --4---7---2----2---4---7-7---2--0---------------------------------------
    ------------------------------------------------------------------------
    
    
    ------------------------------------------------------------------------
    ------------------------------------------------------------------------
    --6---9---4---6---------------------------------------------------------
    --6---9---4---6---2-----------------------------------------------------
    --4---7---2---4---2-----------------------------------------------------
    ------------------0-----------------------------------------------------
    
    
    B5…
  • Chords:
    E5(VII) - x799xx
    
    
    Riff:
    
    e --------------------------------------
    B -----0--------0--------0--------0-----
    G --------------------------------------
    D ---4---4----7---7----5---5----9---9---
    A -2--------5--------3--------7---------
    E…
  • Chords:
    G5(V) - xx578x
    
    
    Intro:
    G5(V)-D5-C5-G5 (4x)
    
    
    Verse:
               G5(V)    D5        C5      G5
    Well I was hangin' around the railway station 
    G5(V)-D5-C5-G5
       G5(V)     D5          C5    G5
    My mind went insane from…
  • Tuning (low to high): D A D G C D
    
    
    Intro (play 3x)
    D------12-10-------------------12-10--------------
    C-------------------------------------------------
    G----0-------12-12/15-13-12--0-------12-----------
    D-------------------------------------------------
    A-------------------------------------------------
    D-------------------------------------------------
    
    then
    D----------0--------0--------0-----------0--------
    C----------------------0--------0-----------0-----
    G-------0--------0--------------------8-----------
    D-------------------------------------------------
    A----3--------6-----------------------------------
    D-------------------------8--------6--------------
    
    
    Verse
    D----0----0-------0----0--------------------------
    C----0----0-------0----0--------------------------
    G----0----0-------0----0--------------------------
    D----8----8/10----6----6/8------------------------
    A----8----8/10----6----6/8------------------------
    D----8----8/10----6----6/8------------------------
    
    
    Pre-Chorus…
  • Intro x4:
    E|--3-3-3-3-3-2-2-2--|
    B|--3-3-3-3-3-3-3-3--|
    G|--0-0-0-0-0-0-0-0--|  
    D|--0-0-0-0-0-0-0-0--|
    A|-------------------|
    E|-------------------|
    
    
    Chord/Bass Notes(For Riff 1):
    1st Time Round - G5
    2nd Time Round - E5
    3rd…
  • Intro (the riff):
    
        G        G/C G/B  G/A
    e ------3---2-0---2-----------
    B --3------------------3------
    G --0-------------------------
    D --0-------------------------
    A ----------------------------
    E ----------------------------
    (Play…
  • Intro:
    E5 (two measures)
    A5 (one measure)
    B5-A5 (one measure)
    E5 (one measure)
    
    
    Verse:
    E5
    I ain't go no outfits to pick and choose 
    So I really ain't got that much to lose 
    A5
    Picture's getting fuzzy and it's stuck on channel…
  • Intro:
    
    E5(VII)-B5-F#5-E5
    E5(VII)-B5-F#5-E5 
    
    
    Verse:
    E5(VII)           B5              F#5                   E5
    Do you think it'd be okay if your willing to let things go 
    E5(VII)       B5                   F#5…
  • G/B-G/F#-G
               Get ready...
    C2-C2/B-G
    
    C2 C2/B   Em7            G    C2 C2/B  G
    I feel so important today and I wish I didn't 
    C2 C2/B   Em7            G    C2 C2/B  G
    I feel so important today and I wish I didn't…
  • Intro:
    (guitar 1)
    e --3--3-3--3--3-3--3--3-3------3--3-3--3--3-3--3--3-3--
    B --3--3-3--3--3-3--3--3-3------3--3-3--3--3-3--3--3-3--
    G --0--0-0--0--0-0--0--0-0------0--0-0--0--0-0--0--0-0--
    D --0--0-0--0--0-0--0--0-0------0--0-0--0--0-0--0--0-0--
    A…
  • Intro riff (guitar one):
    e ----------------------------------
    B --------10--5-7----2-5------------
    G ----------------------------4-6---
    D ----------------------------------
    A ----------------------------------
    E ----------------------------------
    Guitar…
  • Tune your b to c
    
    
    Intro (the riff):
    e --------------------|-----------------------
    C --6---6-------------|-6---6----6------------
    G --6-8-6-8--6--4-----|-6-8-6-8--6------------
    D ----6---6--4--2-----|---6---6---------------
    A…
  • Tuning: D A D G B#(C) E
    
    
    Intro:
    
    -----0-----0------0----0----0-----0-------0-----------
    -----0-----0------0----0----0-----0-------0-----------
    ---9-----7-----12----9-----9-----7---5/4--4----------- x4
    ---7-----5-----10----7-----7-----5---3----------------
    ------------------------------------------------------
    ------------------------------------------------------
    
    
    Bridge:
    
    -0---0--0--0--0-0-0-0-0-0-0--
    -0---0--0--0--0-0-0-0-0-0-0--
    -10/-9/-7--9--0-0-0-0-0-0-0--
    -7---7--7-----2-2-2-2-3-3-3--
    -0---0--0-----2-2-2-2-3-3-3--
    --------------2-2-2-2-3-3-3--
    
    
    -0---0--0--0--0-0-0-0-0-0-0--0-0-0-0-0-0------------
    -0---0--0--0--0-0-0-0-0-0-0--0-0-0-0-0-0-----------
    -10/-9/-7--9--0-0-0-0-0-0-0--0-0-0-0-0-0------------
    -7---7--7-----2-2-2-2-3-3-3--5-5-5-5-5-5-----------
    -0---0--0-----2-2-2-2-3-3-3--5-5-5-5-5-5-----------
    --------------2-2-2-2-3-3-3--5-5-5-5-5-5-----------
    
    
    Chorus:
    -----0-------0-------0------0----
    ---0--0-------0-------0------0---
    -------0---0---0---0---0---0--0--…
  • Tunning = DADDDD = slide
    
    
    INTRO AND VERSES:
    
    D[--0----0-0-0-0-0-0-0-|--0----0-0-0-0-0-0-0 	
    D[--5---7-7-7-7-7-5-5-|--5---7-7-7-7-7-5-5
    D[--0----0-0-0-0-0-0-0-|--0----0-0-0-0-0-0-0	
    D[--0----0-0-0-0-0-0-0-|--0----0-0-0-0-0-0-0
    A[--5---7-7-7-7-7-5-5-|--5---7-7-7-7-7-5-5	
    D[---------------------|--------------------	
    		
    	
    D[--0-0-0-0-0-0-0--0-0-0-0-0-0-0-
    D[--0-0-0-0-0-0-0--0-0-0-0-0-0-0-
    D[--0-0-0-0-0-0-0--0-0-0-0-0-0-0-
    D[--7-7-7-7-7-7-7--5-5-5-5-5-5-5-
    A[--7-7-7-7-7-7-7--5-5-5-5-5-5-5-
    D[--7-7-7-7-7-7-7--5-5-5-5-5-5-5-
    
    
    PRECHORUS:
    
    D[-0-0-0-0-0-0-0-0-0-0-0-0-0-0--0-0-0-0-0-0-0-0-0-0-0-0-0-0-
    D[-0-0-0-0-0-0-0-0-0-0-0-0-0-0--0-0-0-0-0-0-0-0-0-0-0-0-0-0-
    D[-0-0-0-0-0-0-0-0-0-0-0-0-0-0--0-0-0-0-0-0-0-0-0-0-0-0-0-0-
    D[-9-9-9-9-9-9-9-9-9-9-9-9-9-9--5-5-5-5-5-5-5-5-5-5-5-5-5-5-
    A[-9-9-9-9-9-9-9-9-9-9-9-9-9-9--5-5-5-5-5-5-5-5-5-5-5-5-5-5-
    D[-9-9-9-9-9-9-9-9-9-9-9-9-9-9--5-5-5-5-5-5-5-5-5-5-5-5-5-5-…
  • F#5(IX) - x9(11)(11)xx
    E5(VII) - x799xx
    B5 - x244xxx
    C#5 - x466xx
    Eb5 - X688xx
    
    
    Intro: G#5 F#5(IX) E5(VII) (4x)
    
    
    Verse:
    G#5                        E5(VII)
    I heard the floor creak or so I thought
    G#5…
  • (intro)
    e ---------------------------
    B -----0h3---0-3---0---------
    G -0h2---------------2-0-----
    D ---------------------------
    A ---------------------------
    E ---------------------------
    (play 4 times)
    
    
    (verse)
    D5…
  • D5             G5     A5
    e -------------------------------
    B -------------------------------
    G -7-7-7-------------------------
    D -7-7-7-7-10p9p7-5--5---7--7----
    A -5-5-5----------5--5---7--7----
    E ----------------3--3---5--5----…
  • Tuning:
    C#-G#-C#-G#-C#-C#
    (the tunings are also Db-Ab-Db-Ab-Db-Db, they're the same as the above tunings actually)
    
    
    Crds:
    D  000000
    G  550000
    E  x77000
    D2 x55000
    B  990000
    A  770000
    F# 440000
    E2 220000
    
    
    Riff 1:…
  • E5 022xxx
    A5 x022xx
    B5 x244xx
    C5 x355xx
    C#5 x466xx
    D5 x577xx
    
    
    Intro:
    e -----------------------------------------------------
    B -----------------------------------------------------
    G -----------------------------------------------------
    D…
  • (tune your high e to f# - be careful of breakage)
    
    
    Intro:
    
    (r.f. 1 - guitar 1)
    F#-----0------------------|---0---------------------
    B -----0------------------|---0---------------------
    G --4---------------------|-4-----------------------
    D…
  • Intro:
    C5-G5-C5-F5-C5-Bb5-F5-G5
    
    
    Verse:
    C5              G5              C5	      	F5
    Don't take much lookin' back to know I took my coffee black then 
    C5       Bb5               F5                G5
    Nothin's different now…
  • Verse:
                 D5
    Well they're shutting all the shops up on the avenue 
                F#5	            G5              D5
    And they're holding out for cheaper Chinese food 
           D5
    If I'm older now and have a tainted…
  • Tuning: Standard 
    
    C5 (xx553x) A5 (xx220x) F5 (xxx331) G5 (xxx553)
    
     
    Intro.
    
    e|-------------------------------------------------------------------------|
    B|-------------------------------------------------------------------------|
    G|-----5--5--5--5--5---2--2--2---2--2---5--5--5--5--5---2--2--2---2--2-----|
    D|-----5--5--5--5--5---2--2--2---2--2---5--5--5--5--5---2--2--2---2--2-----|
    A|-----3--3--3--3--3---0--0--0---0--0---3--3--3--3--3---0--0--0---0--0-----|
    E|-------------------------------------------------------------------------|
    
    e|-------------------------------------------------------|
    B|------------8---8--------------------------------------|
    G|------4/5-------5---5---7/9/7---5------5---7/5---------|
    D|------------------------------------7-----------7/5----|
    A|-------------------------------------------------------|
    E|-------------------------------------------------------|…
  • Intro: Eb5-B5-F#5(IX)-Eb5-Db5
           Eb5-B5-F#5(IX)
    	 Eb5-B5-F#5(IX)-Eb5-Db5
           Eb5-B5-F#5(IX)
    
    
    Verse: Eb5-F#5-B5-Eb5-Db5
           Eb5-F#5-B5
    
    
    Bridge: E5-F#5-G#5
    
    
    Chorus: Intro
    
    
    (intro)
    
    
    (verse)
    Could you talk to…
  • Tuning: Standard
    
    Guitar 1 G (330023) em (000220) D (332002) 
    Guitar 2 G (000553) em (000220) D (032000)
    
    h = hammer on
    
    
    Riff 1
    Guitar 1
    e|----5---5---5---5---5---5---5---5---5---5---5---5--|
    B|----5---5---5---5---5---5---5---5---5---5---5---5--|
    G|----6h7-7---7---7---6---6---6h7-7---7---7---6---6--|
    D|----7---7---7---7---7---7---7---7---7---7---7---7--|
    A|----5---5---5---5---5---5---5---5---5---5---5---5--|
    E|----5---5---5---5---5---5---5---5---5---5---5---5--|
    
    Guitar…
  • standard tuning
    
    
    INTRO
    e-----------------------------------------------
    b-7 7-88---7-7-8-8--888--/-3-3-33-3-3-3-333-----
    g-0-0-00---0-0-0-0--000----0-0-00-0-0-0-000-----
    d-0-0-00---0-0-0-0--000----2-2-22-2-2-2-222-----…
  • Intro:
    E5
    
    
    Verse:
    E5
    Friday night, I'd just got back 
    I had my eyes shut, was dreaming about the past
    
    G5
    (bass riff) 
    e -----------------------------------
    B -----------------------------------
    G -----------------------------------
    D…
Наверх