Аккорды Good Charlotte - Say Anything

Добавлено: @romashka
Дата добавления: 17 Июля 2021г.
Рейтинг:
0.0
Просмотров: 48
Транспонировать - +
Verse 
C       Csus4/F
  Here I am on 
C              Csus4/F
  the phone again and
C         Csus4/F
  awkward silence is
C              Csus4/F
  on the other end
 
C                  Csus4/F     C             Csus4/F
I used to know the sound of a smile in your voice
           C         Csus4/F     C                   G
But right now all I feel is the pain of the fighting starting up again
 
Pre-Chorus 
Am                            G                       F
All the things we talk about you know they stay on my mind, on my mind
Am                                G                          F
All the thing we laugh about will bring through it all every time
F
After time, after time
 
Chorus 
C                 G
Don't say a word, I know you feel the same
F
Just give me a sign, say anything, say anything
C                       G
Please don't walk away, I know you wanna stay
F
If you just give me a sign, say anything, say anything
 
eb|--------------------------------------------|
Bb|--1--1--0--0--------------------------------|
Gb|--------------2--2--0--0--------------0-----|
Db|--------------------------3--2-----0--------|
Ab|--------------------------------3--------3--|
Eb|--------------------------------------------|
 
Verse
C             Csus4/F
  Some say that time changes,
C                Csus4/F
  Best friends can become strangers
C                     Csus4/F
  But I don't want that, no not for you
       C                          Csus4/F
If you just stay with me we could make it through
C                    Csus4/F
  So here we are again same old argument
C                      Csus4/F
  Now I'm wondering if things will ever change, yeah
C                          Csus4/F
  When will you laugh again, laugh like you did back when
C                                      G
  We'd make noise 'till 3:00AM and the neighbors would complain
 
Pre-Chorus 
Am                            G                       F
All the things we talk about you know they stay on my mind, on my mind
Am                                G                          F
All the thing we laugh about will bring through it all every time
F
After time, after time
 
Chorus 
C                 G
Don't say a word, I know you feel the same
F
Just give me a sign, say anything, say anything
C                       G
Please don't walk away, I know you wanna stay
F
If you just give me a sign, say anything, say anything
 
eb|----------------------------------------|
Bb|--1--1--0--0----------------------------|
Gb|--------------2--2--0--0--------------0-|
Db|--------------------------3--2-----0----|
Ab|--------------------------------3-------|
Eb|----------------------------------------|
 
Bridge
Am           G            F
I'm falling, I'm falling, I'm falling down
Am           G            F
I'm falling, I'm falling, I'm falling down
F
Down, down, down
 
Chorus
 
C                 G
Don't say a word, I know you feel the same
F
Just give me a sign, say anything, say anything
C                       G
Please don't walk away, I know you wanna stay
F
If you just give me a sign, say anything, say anything
 
eb|-----------------------------------------0--|
Bb|--1--1--0--0-----------------------------1--|
Gb|--------------2--2--0--0--------------0--0--|
Db|--------------------------3--2-----0-----2--|
Ab|--------------------------------3--------3--|
Eb|--------------------------------------------|
Наверх