Аккорды «Gorillaz»

Gorillaz
Gorillaz — виртуальный музыкальный коллектив, состоящий из четырёх анимированных персонажей: 2D, Murdoc, Noodle и Russel. Создан в 1998 году Деймоном Албарном из группы Blur и художником Джейми Хьюлеттом. Местом организации является Лондон, Англия Gorillaz известен как совместный проект лидера группы Blur Деймона Албарна (Damon Albarn) и художника Джейми Хьюлетта (англ. Jamie Hewlett). Дебютный альбом группы (2001) вызвал огромный интерес публики, в том же году группа получила Grammy. После выхода… Читать полностью... Gorillaz — виртуальный музыкальный коллектив, состоящий из четырёх анимированных персонажей: 2D, Murdoc, Noodle и Russel. Создан в 1998 году Деймоном Албарном из группы Blur и художником Джейми Хьюлеттом. Местом организации является Лондон, Англия Gorillaz известен как совместный проект лидера группы Blur Деймона Албарна (Damon Albarn) и художника Джейми Хьюлетта (англ. Jamie Hewlett). Дебютный альбом группы (2001) вызвал огромный интерес публики, в том же году группа получила Grammy. После выхода альбома G-Sides, состоящего из «эксклюзивных» песен с синглов (обыгрывается слово «B-Side», «вторая» сторона виниловой пластинки), группа уходит в творческий отпуск. В 2005 выходит новая пластинка Demon Days, которая просто потрясает мировые хит-парады. Вымышленная история группы 2D и Мёрдок История создания проекта довольно запутанна и необычна. Простой английский парень Стю-Пот, абсолютно помешанный на клавишных инструментах — младший служащий в торговом центре Дяди Сэма. Его привлекает перспектива карьерного роста и заветная должность регионального менеджера. В то же время некий Мёрдок вместе с шайкой дружков проникает в магазин. Его план: украсть несколько музыкальных инструментов и создать свою группу, которая бы не сходила с вершин чартов и приносила огромные деньги. И вот, он за рулём, ..УДАР, звук разбитого стекла… — его машина летит прямо через витрину магазина. Ещё удар — на этот раз страдает голова Стю-Пота. У бедняги выбит глаз. Мёрдоку приходится отвечать за свой поступок тридцатью тысячами часов принудительных общественных работ и десятью часами еженедельного присмотра за коматозником Стю-Потом. Прошло не так много времени и гнусные повадки Мёрдока снова переворачивают его жизнь вверх тормашками. Недалеко от Ноттенгемской автостоянки, при попытке осуществить поворот на 360 градусов хозяин машины катапультирует непристёгнутого Стю-Пота прямиком через лобовое стекло автомобиля. Несчастный, естественно, не имеет шанса избежать столкновения с обочиной; выбит второй глаз, а в травмированной голове происходят серьёзные сдвиги. И вот, перед нами молодой пустоглазый небожитель с невообразимым «ежом» на голове и неконтролируемым полётом мысли. И, что, вероятно, самое главное — музыкальный талант тоже терпит изменения, в клавишных партиях появляется всё больше сверхъестественного. Совершенный материал для популярности. Стю-Пот меняет имя: теперь он 2-D («2 Dents», то есть"2 дырки"). Теперь Мёрдок нуждается в барабанщике. Рассел Переметнёмся на несколько лет назад. В Штате Нью-Йорк в США, Рассел — ребёнок из средней семьи, выгнан из своей шикарной частной школы из-за его одержимости демоном. Он находится в коме в течение четырёх лет, пока сложное изгнание нечистой силы не освобождает его. Russel присоединяется к Brooklyn High — группе талантливых уличных музыкантов, рэпперов и ди-джеев. Хип-хоп спасает его душу. Но лишь на какое-то время. Случайная перестрелка на ночной улице уносит жизни всех его друзей, и Рассел, единственный выживший, пытаясь оправиться от полученного шока, ещё лежит на мостовой, и души всех перестрелянных корешей обосновываются в его теле. Они стали виновниками призрачной пелены, не сходящей с его глаз, и неплохому таланту рэппера, хип-хопера и ударника. Родители перевозят его в Англию, надеясь, что там у него будет более тихая жизнь. Но они не знали уже известного нам Мёрдока, который наткнулся на Russel’a в Soho Rap Record — рэп-магазине. Всё остальное было для него делом техники. Группа, таким образом, состояла уже из трёх участников. Нудл Теперь коллектив нуждался в гитаристе. Разместив объявление в NME ребята ждут недолго и в тот же день к их дверям доставляется пищевой контейнер. Без всякого предупреждения из недр этого самого контейнера прыжком появляется маленькая японка с гитарой в руках. Неугомонно щебеча на непонятном языке, сопровождая свои действия отличной гитарной партией, малышка заканчивает неимоверное приветствие впечатляющим приёмом карате. Ребята в шоке. Немая пауза. Владение гитарой (мини-гитарой!) тут же отбросило надобность в последнем участнике группы. Вот и гитаристка, и имя этому чуду — Нудл (лапша), так как она очень любила лапшу и рис, тем более это всё, что она может сказать по-английски. В конце декабря 2010 года на сайте Gorillaz была выложена для бесплатного скачивания новая работа коллектива "The Fall". Песни для этого альбома были записаны во время тура по Северной Америке на iPad Дэймона Албарна. Скрыть...
Популярные аккорды Gorillaz:
алфавиту | просмотрам | случайно
  • Guitar 1
    e-----12-0--10-0--8-0--7-0------|
    B-------------------------------|
    G-------------------------------|
    D-------------------------------|
    A-------------------------------|
    E-------------------------------|
    
    
    Guitar…
  • Chords:
    
    G A
    E|---3---|---5---|
    B|---3---|---5---|
    G|---4---|---6---|
    D|---5---|---7---|
    A|---5---|---7---|
    E|---3---|---5---|
    
    
    Only Play these Chords Like This (You need to play them in Arpeggio Mode):
    
    G (4 Times)
    G (4…
  • (Transcribed for guitar)
    E|----------------------------------|
    B|----------------------------------|
    G|----------------------------------|
    D|----------------------------------|
    A|---------2-1----------------------|
    C|-3-3-5-6-----8-8-11-10-6-3----/15-|
    
    The…
  • E|-------------------------------------------------|
    B|-------------------------------------------------|
    G|-----------2---------1---------------------------|
    D|---0-0-0-0-----0-1-0---4-2-----------3-------3-2-|
    A|-----------------------------0-0-0-1---0h1-1-----|
    E|-------------------------------------------------|…
  • Am          F
    I ain't happy, I'm feeling glad
           Am       F
    I got sunshine, in a bag
         Am        F
    I'm useless, but not for long
         Am        B
    The future is coming on
    I ain't happy, I'm feeling glad
    I got sunshine,…
  • intro
    играется с дребезжанием
    E|-x-x-x-x-x-x-x-x-x-x-x-x-x-x-x--x-x-x-|
    B|-x-x-x-x-x-x-x-x-x-x-x-x-x-x-x--x-x-x-|
    G|-x-x-x-x-x-x-x-x-x-x-x-x-x-x-x--x-x-x-|
    D|-5-5-5-5-5-3-3-3-3-3-3-5-5-5-3--3-4-5-|
    A|-5-5-5-5-5-3-3-3-3-3-3-5-5-5-3--3-4-5-|
    E|-3-3-3-3-3-1-1-1-1-1-1-3-3-3-1--1-2-3-|…
  • Intro: Repeat 4 times
    
    G|------------------------------------|
    D|------------------------------------|
    A|----3333-----------[3]--------------|
    E|-----------3333---------------------|
    
    Verse: Chorus
    Repeat 3 times
    G|-----------------|
    D|-----------------|
    A|----3333------[3]|
    E|----------3333---|
    
    Chorus:
    
    Repeat…
  • Tuning: Normal
    
    E|-12-10-9-7-10-9-7-5-9-7-5----7-5-3-2-|
    B|---------------------------------7---|
    G|-------------------------------------|
    D|-------------------------------------| x2
    A|-------------------------------------|
    E|-------------------------------------|…
  • E|-----------------------------------------|
    B|---------------------------------4--4--4-|
    G|---5--5----3--3--3----5--5----3--3--3----|
    D|---5--5----3--3--3----5--5----1--1--1----|
    A|---3--3----1--1--1----3--3---------------|
    E|-----------------------------------------|
    
    Its…
  • B|--------3-------------|
    G|---0-0------0-2-0-3-0-|
    D|---0-0------0-2-0-3-0-|
    
    I'm 2D
    Won't you buy me
    Piano chord
    Dictionary
    
    One two D three
    One two D three
    One two D three
    One two D three
    
    Mmm (x8)
    
    One two D three
    One…
  • A G A G
    
    A
    Got off the plane to the country sound
    G
    i drove to the mountain and a hole in the ground
    A
    there was crack on the corner and someone dead
    G
    and fire coming out of a monkey's head
    
    A G
    don't get lost in heaven.....
    
    A
    put…
  • Intro:
    e|--------------------|-------------------------|
    B|--------------------|-------------------------|
    G|--------------------|-------------------------| Repeat this a lot of times
    D|--------------------|-------------------------|
    A|--------------------|-------------------------|
    E|-3-5--5-5--5-5--5-5-|-0-1--1-1--1-1--1-1--1-1-|
    Hello...…
  • throughout the whole song (funkyness) play:
    e--5------5-5----|
    B--5------5-5----|
    G--5------5-5----|
    repeat in infinity, turn the music UP
    
    1st chorus, arpeggiate this
    e-5---3---1---3-|
    B-5---3---1---3-|
    G-5---4---2---4-|
    D-7---5---3---5-|
    A-7---5---3---5-|
    E-5---3---1---3-|
    repeat…
  • [ Standard Tunning ]
    
    E A D G B E
    
    F --1-3-3-2-1-1--|
    B --x-2-4-4-4-2--| or --7-9-9-8-7-7--|
    Em --0-2-2-0-0-0--| or --x-7-9-9-8-7--|
    Am --x-0-2-2-1-0--|
    D --x-x-0-2-3-2--|
    G --3-2-0-0-3-3--|
    
    
    
    Ok, this is the way you have…
  • RIFF 1 RIFF 2
    E|-------------------------- ------------------|
    B|-------------------------- ------------------|
    G|--5-5--3-3-3--5-5--8-8-8-- ------------------|
    D|--3-3--3-3-3--3-3--8-8-8-- --5-5-5-5-5-5-5-5-|
    A|--3-3--3-3-3--3-3--3-3-3--…
  • intro:
    1-------------------------------
    2--7--10--7--10--7--10--12--12--
    3-------------------------------
     Am                Em
    Everybody here with me
     Am              Em
    Got no camera to see
     Am…
  • Main riff
    G--------------------------------------------------------------------|
    D----------3------------------------------3--------------------------|
    A-------4----------6---4---------------4---------6---4---------------|
    E----6--------------------6---------6-------------------6---6---9---6|
    
    (im…
  • E ----------------------------------|
    B ----------------------------------|
    G ----------------------------------| X3
    D -7--------------------------------|
    A --7----5/7--5-3-5-3-5-3-5/7-3-5-3-|
    E ----------------------------------|
    
    2
    E…
  • Riff 1
    |G|-------------------------|
    |D|-------------------------|
    |A|-------------------------|
    |E|--5-5-3-5-5-3-5-5-3-5--3-|
    
    Riff 2
    |G|------------------------------------------------------------------|
    |D|--7---7--5-5------7---7--5-5------7---7--5-5------7---7-5-5-5-----|
    |A|----7--------7-0----7--------7-0----7--------7-0----7---------7-0-|
    |E|------------------------------------------------------------------|
    
    
    Rest…
  • e|---13----12-----10------10-------------------------------------------------|
    B|11----10----8--------8-----------------------------------------------------|
    G|---------------------------------------------------------------------------|
    D|---------------------------------------------------------------------------|
    A|---------------------------------------------------------------------------|
    E|---------------------------------------------------------------------------|
    
    ................................(right…
  • E|-----------3--3--------3---3--------3---3--------3---3-|
    B|------------ 3-----------3------------3-------------3--|
    G|-------------------------------------------------------|
    D|-------------------------------------------------------|
    A|---2---------------2------------2------------2---------|
    E|-------------------------------------------------------|
    
    E|-------2---2-------2---2------2----2------2---2-|
    B|---------0-----------0-----------0-----------0--|
    G|------------------------------------------------|
    D|------------------------------------------------|
    A|---0-----------0-----------0-----------0--------|
    E|------------------------------------------------|…
  • Riff 1 [Intro]
    |G|-------------|
    |D|-------------|
    |A|-------------|
    |E|--0--0--0--0-|
    
    Riff 2
    |G|-----------------------------------------------------------------|
    |D|-----------------------------------------------------------------|
    |A|-----------------------------------------------------------------|
    |E|--0-0-0-0-7-7--10-10-10-10-10-9--12-12-12-12-10-7--10-10-10-10-9-|
    
    Riff…
  • Intro
    
    E|-------------------------------------------------|
    B|-3/5-5-0-3-5-0-3-5-------3/5-5-0-3-5-0-3-5-------|
    G|-------------------2-0------------------2-0------|
    D|-------------------------------------------------| x2
    A|-------------------------------------------------|
    E|-------------------------------------------------|
    
    It…
  • (E-Natural) E A C Gm
    e|-0--------------------3--|
    B|-0-------------2---1--3--|
    G|-0----------1--2---0--4--|
    D|-0----------2--2---2--5--|
    A|-0----------2--0---3--5--|
    E|-0----------0---------3--|
    
    Intro:
    Up and down stroke…
  • Outro solo:
    
    E------------------------------|------------------------------|
    B------------------------------|------------------------------|
    G------------------------------|------------------------------|
    D-----------2------------------|-----------2------------------|
    A------5-----------4---5-------|------5-------------4---5-----|
    E--3------------2--------------|--3--------------2------------|
    
    
    
    E-------------------------------|
    B-------------------------------|
    G-------------------------------|
    D-------------------------------|
    A--------3-------------------2--|
    E---1-------------------1-0-----|
    
    Then...
    
    E-------------------------------------|
    B-------------------------------------|
    G---4/6--2/4------4--6---6p4⁄4p2------|
    A--------------2--------------------0-|
    E----------------------------------0--|
    
    E------------------------------------------|----------------------|
    B------------------------------------------|----------------------|
    G--4/6--4⁄2--2--4-----------4⁄2/4--6--2--4-|-------4/6--4⁄2--4--2-|
    D------------------------------------------|----------------------|
    A------------------------2-----------------|---0------------------|
    E-------------------0-0--------------------|-0--------------------|…
  • E|---------|---------
    B|---------|---------
    G|---------|---------
    D|6-6------|6-6------
    A|6-6------|6-6------
    E|4-4------|4-4------
    
    Then there's a little part that goes kind of like this:
    E|5---3----3---|5---3----3
    B|--3----5-----|-3----5---
    G|-------------|----------
    D|-------------|----------
    A|-------------|----------
    E|-------------|----------
    
    Lyrics:
    This…
  • (piano)
    G-G-A-B--B-C-D-E-D-B--D-C-B-A--C-B-A-G-G--G-A-B-B-C-D-E-D-B--D-C-B-A-B-A-G
    
    D-C-B-A-----C-B-A-G--G-G-A-B-B-C-D-E-D-B--D-C-B-A-B-A-G-G
    --------D-D-----------------------------------------------
    
    (guitar)
    e|---------------------------------------------------------------------|
    B|---------------------------------------------------------------------|
    G|---------------------------------------------------------------------|
    D|--5-5-7-9--9-10-12-14-12-9-12-10-9-7--10-9-7-5-----------------------|
    A|---------------------------------------------------------------------|
    E|---------------------------------------------------------------------|
    
    e|---------------------------------------------------------------------|
    B|---------------------------------------------------------------------|
    G|---------------------------------------------------------------------|
    D|--5-5-7-9--9-10-12-14-12-9-12-10-9-7-9-7-5--5------------------------|
    A|---------------------------------------------------------------------|
    E|---------------------------------------------------------------------|
    
    e|---------------------------------------------------------------------|
    B|---------------------------------------------------------------------|
    G|---------------------------------------------------------------------|
    D|--12-10-9-7---10-9-7-5--5-5-7-9--9-10-12-14-12-9-12-10-9-7-9-7-5--5--|
    A|-----------5-5-------------------------------------------------------|
    E|---------------------------------------------------------------------|
    
    e|---------------------------------------------------------------------|
    B|---------------------------------------------------------------------|
    G|---------------------------------------------------------------------|
    D|--12-10-9-7---10-9-7-5--5-5-7-9--9-10-12-14-12-9-12-10-9-7-9-7-5--5--|
    A|-----------5-5-------------------------------------------------------|
    E|---------------------------------------------------------------------|…
  • Main Riff
    E|-----------------------------------------------|
    B|-----------------------------------------------|
    G|-----9-8-7------------7-------7-6-5--4-4-4-5-7-|
    D|-7-7-------10-7-7-10------5-5------------------|
    A|-----------------------------------------------|
    E|-----------------------------------------------|
    
    middle
    E|------------------------------|
    B|------------------------------|…
  • D
    Up on melancholy hill
                        A
    There's a plastic tree
                      Hm
    Are you here with me
          G                  A
    Just looking out on the day
                 G   A
    Of another dream
    
    
    Well you can't get…
  • Em
     You've applied the pressure
         Bm            A
     To have me crystalised
                Em
     And you've got the faith
          Bm                A   Em
     That I could bring paradise
    
     I'll forgive and forget
         Bm…
  • Вступление: Em Dm G Dm
    
    Куплет 1:
    Em
    Distant stars
            Dm
    Come in black or red
    G
    I've seen their worlds
              Dm   Em
    Inside my head
    
    They connect
             Dm
    With the fall of man
    G
    They breathe you…
  • Haha, woii yoii!
    Done know how di ting go, a the Unruly boss
    Don'?
    Hahaha
    
    (Press the button to begin)
    
    Проигрыш: F#m }x3 C#
    
    Cho
             F#m
    All my life
       C#                           E…
Наверх