Аккорды Город 312 - Останусь

Добавлено: @romashka
Дата добавления: 31 Января 2022г.
Рейтинг:
0.0
Просмотров: 27
Транспонировать - +
[Вступление]: Cm/A D7 
              Gm7/9 D# Cm7 Cm/A D7 - 2 раза

Gm7                         D#   
В конце тоннеля яркий свет слепой звезды,
Cm7                     Cm/A       D7
Подошвы на сухой листве оставят следы. 
Gm7                            D#   
Еще под кожей бьется пульс, и надо жить,
Cm7                            Cm/A          D7
Я больше, может, не вернусь, а, может, я с тобой останусь.

[Припев]:
 Cm7          F7          A# 
     Останусь пеплом на губах,
              D#            Cm7
     Останусь пламенем в глазах,
               F7           A#     F G
     В твоих руках дыханьем ветра.
 Cm7          F7          Dm7
     Останусь снегом на щеке,
              D#          Cm7
     Останусь светом вдалеке,
             D7         Gm
     Я для тебя останусь светом.
     D#            Cm7            Cm/A         D7
     Та-а-а... Там-да-ра-там... Там-да-ра-там.
 Gm           D#            Cm7              Cm/A        D7
     Та-да-ра-та-а-а... Там-да-ра-там... Там-да-ра-там.

В конце тоннеля яркий свет, и я иду,
Иду по выжженной траве, по тонкому льду.
Не плачь, я боли не боюсь, ее там нет,
Я больше, может, не вернусь, а, может, я с тобой останусь.

Припев 2 раза


Вокальная партия:

 Gm9/7          D#              Cm7                 Cm/A       D7
   Та  да  да   та да___   тан  да да да___    тан  да да да___
d|---------------------------------------------------------------
A|---------------------------------------------------------------
F|---------------------------------------------------------------
C|--------------7--8~-----------------5--------------------------
G|-----3---5----------------8---8-6-------------5----5-3--6------
D|--6------------------------------------------------------------

   Gm                              D#        Cm7                       Cm/A        D7
    В конце тоннеля яркий свет слепой звезды, Подошвы на сухой листве оставят следы. 
d|------------------------------------------------------------------------------------
A|------------------------------------------------------------------------------------
F|------------------------------------------------------------------------------------
C|------------------------------------------------------------------------------------
G|---3---5--3--5--3--5--3--5----5--5--6-6~----1--3--1--3--1--3--1--3---1--3--5--3--5--
D|------------------------------------------------------------------------------------
   
   Gm                              D#       Cm7                             Cm/A            D7
    Еще  под кожей бьется пульс, и надо жить, Я больше, может, не вернусь, а, может, я с тобой останусь.
d|------------------------------------------------------------------------------------------------------
A|------------------------------------------------------------------------------------------------------
F|------------------------------------------------------------------------------------------------------
C|---------------------------------------8~------------------------------------------------4~--4--5--7--
G|-3--5--3---5--3---5--3---5----5--5--6--------1--3--1--3--1---3--1---3-----3--5-5---5--5---------------
D|------------------------------------------------------------------------------------------------------

  Cm7          F7           A#            D#            Cm7           F7            A#       F7    G    
    Останусь пеплом на губах, Останусь пламенем в глазах, В твоих руках дыханьем ветра.
d|------------------------------------------------------------------------------------------------------
A|------------------------------------------------------------------------------------------------------
F|------------------------------------------------------------------------------------------------------
C|--8-8--8---7---5--5-----------------------------------------------------------------------------------
G|---------------------8--8~---8-8--8--8~---6-6---5--6~----5--6---5--6~--5-5-3---3-5~-------------------
D|------------------------------------------------------------------------------------------------------

  Cm7          F7        Dm            D#           Cm7          D7               Gm7    
    Останусь снегом на щеке,  Останусь светом вдалеке,   Я для тебя   останусь   светом.
d|---------------------------------------------------------------------------------------
A|---------------------------------------------------------------------------------------
F|-------------------------------5-----5------5--7--7~------------7----5-----------------
C|--8-8--8---7---5--5----------8-----8-----8-------------5--5--5----------5--7----7--8~--
G|---------------------8--8~-------------------------------------------------------------
D|---------------------------------------------------------------------------------------

Гитара D (настроить под свой диапазон).
Наверх