Аккорды «Grand Funk Railroad»

Grand Funk Railroad
Основанная в 1968 году, "Grand Funk Railroad" была первой американской хард-рок-группой, достигшей массовой известности, при одновременном неприятии многими слушателями и критиками. Команда состояла из гитариста Марка Фарнера (р. 29 сентября 1948, Флинт, США), басиста Мела Шачера (р. 3 апреля 1951, Овоссо, США) и ударника Дона Брюэра (р. 3 сентября 1948, Флинт, США). "Grand funk" был побочным проектом популярной в середине 60-х в окрестностях Мичигана рок-группы "Terry Knight… Читать полностью... Основанная в 1968 году, "Grand Funk Railroad" была первой американской хард-рок-группой, достигшей массовой известности, при одновременном неприятии многими слушателями и критиками. Команда состояла из гитариста Марка Фарнера (р. 29 сентября 1948, Флинт, США), басиста Мела Шачера (р. 3 апреля 1951, Овоссо, США) и ударника Дона Брюэра (р. 3 сентября 1948, Флинт, США). "Grand funk" был побочным проектом популярной в середине 60-х в окрестностях Мичигана рок-группы "Terry Knight And The Pack". Фарнер и Брюэр оба являлись членами этого коллектива (Брюэр до этого еще играл в "Jazz Masters"). После издания на малоизвестном лейбле "Lucky Eleven" сингла "I (Who Have Nothin)", который достиг 46 позиции в американских чартах, к "Pack" присоединился Шачер, до этого игравший в "? And The Mysterians". С этого момента Найт забросил свою вокальную деятельность и стал менеджером группы, переименовав ее в "Grand Funk Railroad". Новое трио в 1969 году подписало контракт с "Capitol Records" и немедленно начало делать себе имя, приняв участие на нескольких больших поп-фестивалях. Их первые синглы попадали в чарты, но "Grand Funk" скоро доказал свою реальную силу и на альбомном рынке. "On Time" поднялся на 27 позицию в 1969-м, а "Grand Funk Railroad" 1970 года был уже на 11 месте. К лету того года концерты группы пользовались большой популярностью, а их альбомы обычно попадали в Топ 10 в течение следующих четырех лет. Из них самый большой успех имел диск 1973 года "We're An American Band", ставший бестселлером и достигший 2 позиции в чартах. Огромный успех группы часто приписывается бурной деятельности ее менеджера Найта. В 1970-м Найт, по слухам, заплатил кругленькую сумму за огромный рекламный щит, установленный на знаменитой нью-йоркской "Times Square". Это было сделано для промоушена альбома "Closer To Home", который впоследствии стал их первым попаданием в Топ 10, а заглавная композиция с этого диска постоянно крутилась в эфире. Та рекламная кампания имела неприятные отклики в прессе, однако популярность коллектива у публики продолжала расти. В июне 1971-го, например, "Grand Funk Railroad" стали второй группой после "Beatles", заполнившей нью-йоркский "Shea Stadium". Их записи продавались в большом количестве несмотря на то, что многие радиостанции их игнорировали. Концертник 1970 года, достигший 5-й позиции в чартах, включал в себя знаменитую композицию Фарнера "Mean Mistreater". В следующем году вышли альбомы "Survival" и "E Pluribus Funk", прославившийся своей "круглой" обложкой. В 1972 группа начала разборки с Найтом, закончившиеся рядом судебных процессов по поводу дележа миллионов долларов. После этого менеджером коллектива стал Джона Истмэн, отец Линды Маккартни. В 1973-м группа сократила свое название до "Grand Funk" и добавила в свои ряды четвертого члена - клавишника Крэйга Фроста (р. 20 апреля 1948, Флинт, США). С продюсером Тоддом Рандгреном парни наконец достигли верхней строчки в хит-парадах со своим синглом "We're An American Band". В 1974 обработка композиции группы "Little Eva" - "The Loco-Motion" также достигла вершины чартов (первый раз в истории американской рок-музыки кавер-версия достигла верней строчки, которую раньше занимал оригинал). В 1975 году популярность команды значительно уменьшилась, и группа вернулась к ее первоначальному названию "Grand Funk Railroad". На следующий год парни заключили контракт с "MCA records" и записали альбом "Good Singin', Good Playin'", продюсировавшийся Фрэнком Заппой. Когда этот релиз не сумел попасть в Топ 50, Фарнер подался в сольную карьеру. Другие члены команды остались вместе, взяли к себе гитариста Билли Элворти, сменили вывеску на "Flint" и потерпели коммерческую неудачу, издав всего лишь один альбом. В 1981-83 годах "Grand Funk" возродились в составе Фарнера, Брюэра и басиста Денниса Беллингера, и на лейбле "Full Moon" издали пару альбомов "Grand Funk Lives" и "What's Funk?". Но, потерпев очередную неудачу, чтобы возвратить былую силу и красоту, они снова распались. Фарнер возвратился к сольной карьере, а позже присоединился к "Adrenalin". Брюэр и Фрост присоединились к "Silver Bullet Band" Боба Сегера. В 1997 году "Grand funk" снова воссоединились и выпустили диск "Bosnia". Скрыть...
Популярные аккорды Grand Funk Railroad:
алфавиту | просмотрам | случайно
  • Tuning: Standard EADGBe
    
    
    Chords Used In The Song
    
         Bm    A    G    B
    e|--------------------------------------------------------------------|
    B|---7-----5----3----2------------------------------------------------|
    G|---7-----6----4----3------------------------------------------------|
    D|---9-----7----5----4------------------------------------------------|
    A|--------------------------------------------------------------------|
    E|--------------------------------------------------------------------|
    
    
    Intro…
  • intro
    G|------------------------------9-97-7--9---9-97-7-7----------------------------9-97-7--9-
    D|7----7-75-5--7---7-75-5--7---------79----------9-9---9-97-7--9---7-75-5--7---------79--
    A|---0-0------57-0-0------57-7-7---------7-7------------------79-0-0------57-7-7----------
    E|---------------------------------------------------7-7----------------------------------
    
    
    -------------|
    3-3----------|
    ------0-0345-|
    ---5-5-------|
    
    
    verse/guitar…
  • intro
       (x8)   
    G|-------|--------------7--7-03-------------7--7-03-------------7--7-03-------------5/7-530--|
    D|-------|3/555555555555-55-5--3555555555555-55-5--3555555555555-55-5--3555555555555---------|
    A|-------|-----------------------------------------------------------------------------------|
    E|3------|-----------------------------------------------------------------------------------|
    
    
    G|------------------------------------------------------------|
    D|5-55533---5-55533-----5533---5-55533-----5533---5-55533-----|
    A|-------345-------543------345-------543------345-------543--|
    E|--------------------33-----------------33-------------------|
    
    
    G|-------------------------3-------------------------------------------|
    D|--------------55303-5-5-5-5-53035-------------------3/55555555555555-|
    A|-----1---------------------------345---------------------------------|
    E|3-3-3-3-31013-----------------------3333333333333333-----------------|
    
    
    G|----------------------7--7-7-7--7-7-7--7-7-7--7-7-7--7-7-7------------|
    D|3455555534555555345555-55-5-5-55-5-5-55-5-5-55-5-5-55-5-5-55--------34|add…
  • intro/chorus
    G|---------------------------------------------------------------|
    D|---------------------------------------------------------------|
    A|5555555555555555333333333333333311111111333333335-5-5-5-3-3-3-3|
    E|---------------------------------------------------------------|…
  • (x7) 
    G|---------------|----------------------------------------------------------/7-77775----------
    D|---------------|-----------------------------------3455-55-555-55-55--------------533-33-33-
    A|---5-5-053-032-|---5-5-053-3-344-44-4455-55-555-55------------------55-55-------------------
    E|3/5------------|3/5-------------------------------------------------------------------------…
  • TUNING: REGULAR
    
    e|------5--6--5--6---3--4--3--4--|
    b|-----6--6--6--6---4--4--4--4---|
    g|-------------------------------|     
    d|-------------------------------| 
    a|-------------------------------|
    E|-------------------------------|
    
    e|------5--6--5--6---3--4--3--4--|
    b|-----6--6--6--6---4--4--4--4---|
    g|-------------------------------|
    d|-------------------------------|
    a|-------------------------------|
    E|-------------------------------|
    
    e|-----5--6--5--6-5-----3--4--3--4-3----|
    b|----6--6--6--6---6---4--4--4--4---4---|
    g|--------------------------------------|
    d|--------------------------------------|
    a|--------------------------------------|
    E|--------------------------------------|…
  • Intro
    G-------------------------|
    D-------------------------|
    A---7-7---7-7---7-7---7-7|
    E-------------------------|
                               
                                                               
    Part 1…
  • Standard Tuning
    
    intro:
    e------------------------------/----------------------
    B----------------------0ho1po0-/-------------------0--
    G-----7---5---4---0ho2---------/--7---5---4---0ho2----
    D---0---0---0---0--------------/0---0---0---0---------
    A------------------------------/----------------------
    E------------------------------/----------------------
    
    repeat…
Наверх