Аккорды Грассмейстер - Он блюз не играет

Добавлено: @romashka
Дата добавления: 25 Марта 2023г.
Рейтинг:
0.0
Просмотров: 39
Транспонировать - +
[Intro]:
             x3
e|------------------------|---------------------|
B|------------------------|---------------------|
G|-s5-2-0-2-s7~-s5-2-0-2~-|-----2---------------|
D|-s5-2-0-2-s7~-s5-2-0-2~-|-2h5------0---0-s7~--|
A|------------------------|-------2b---0--------|
E|------------------------|---------------------|

[Verse]:
    Am  riff x4
e|--5-5-5---------|
B|--5-5-5---------|
G|--5-5-5-7b8r7p5-|
D|--7-7-7---------|
A|--7-7-7---------|
E|--5-5-5---------|

    Dm  riff x2
e|-5-5-5---------|
B|-6-6-6---------|
G|-7-7-7-7b8r7p5-|
D|-7-7-7---------|
A|-5-5-5---------|
E|-x-x-x---------|

   turnaround (F + E)
   F  F  F           F  F  E
e|-8--8--8----------|-8--8--7~--|
B|-10-10-10---------|-10-10-9~--|
G|-10-10-10-7b8r7p5-|-10-10-9~--|
D|-10-10-10---------|-10-10-9~--|
A|-8--8--8----------|-8--8--7~--|
E|-x--x--x----------|-x--x--x---|

[Проигрыш]:(пример)
                  pre-bend on 4 here
e|------0-3--------------|
B|-0-s3---3-3h5p3--------|
G|----------------b4-2~--|
D|-----------------------|
A|-----------------------|
E|-----------------------|

другие вариации можно подобрать в минорной А пентатонике,

[Вступление]:
периодически играется между куплетами как проигрыш.

[Припев]:
Am                    Am
Свет – будто нет его, выхвачен профиль.
Am                      Am
Он неподвижен, спокоен, он – профи.
Dm               Dm
Голос негромок, гитара без фишек.
F                  F          F   E
Он блюз не играет, он просто так дышит.

[Куплет]:
Am                    Am
И ему наплевать на погоду и трафик,
Am                    Am
Есть старый «Урал» - и идите все нафиг,

Dm               Dm
Запах асфальта, шорох покрышек,

F                  F       F   E
Он блюз не играет, он этим дышит.

Am                    Am
Он не любит тусовок, не верит победам,
Am                    Am
Экранам, газетам и музыковедам,

Dm               Dm
Когда ему плохо – гитару берет,

F             F          F   E
Он блюз не играет, он просто живет.

Am                    Am
А она его ждет, и он знает об этом,
Am                    Am
Он к ней приедет перед рассветом,

Dm               Dm
Снимет с нее кружевное белье...

F            F          F   E
Он блюз не играет, он любит ее.

[Припев]:
Am                    Am
Свет – будто нет его, выхвачен профиль.
Am                    Am
Он неподвижен, спокоен, он – профи.
Dm               Dm
Голос негромок, гитара без фишек.
F                      F       F   E
Он блюз не играет, он просто так дышит.

Быстрый 12-тактовый блюз.
Наверх