Аккорды Grave Digger - Sleepless

Добавлено: @romashka
Дата добавления: 03 Апреля 2018г.
Рейтинг:
0.0
Просмотров: 235
Транспонировать - +
Tuning:

e|--------------------------------------------------------------|
B|--------------------------------------------------------------|
G|-0-2-*-*-2-*-*-2-*-2-*-*-2-*-2--------------------------------|
D|-0-2-*-*-2-*-*-2-*-2-*-*-2-*-2--------------------------------|
A|-0-2-*-*-2-*-*-2-*-2-*-*-2-*-2--------------------------------|
E|--------------------------------------------------------------|

e|-------------------------------------------------------------------------|
B|-------------------------------------------------------------------------|
G|-0-2-*-*-2-*-*-2-*-2--2-7-6-7-6------------------------------------------|
D|-0-2-*-*-2-*-*-2-*-2--2-7-6-7-6------------------------------------------|
A|-0-2-*-*-2-*-*-2-*-2--2-7-6-7-6------------------------------------------|
E|-------------------------------------------------------------------------|
Наверх