Аккорды Гражданская Оборона - Самоотвод

Добавлено: @romashka
Дата добавления: 24 Декабря 2021г.
Рейтинг:
0.0
Просмотров: 51
Транспонировать - +
1|--2--2--0----------------2-4--5--5--4-|   4X
2|------------3-2--3--------------------|   
3|---------------------2----------------|  
4|--------------------------------------|  
5|--------------------------------------|    
6|--------------------------------------|    

F#m   Bm   A          C# 
Маяковский видел сон
F#m          Bm  A         C#  
В смутном поле зреет рис
F#m          Bm  A          C# 
В хищной чаще зреет зверь
F#m   Bm     A            C#
Тише едешь — ярче спишь

A             Bm            F#m     
Под нейтральным небом
                E                  Bm C#   
Под нейтральным знаком 
           D
         Самоотвод

Маяковский видел сон
Шаг за шагом — наутёк
Кто разбудит на заре
Кто поймает — кто поймёт

     Под нейтральным снегом
     Под нейтральным страхом 

         Самоотвод

1|--2--2--0----------------2-4--5--5--4-|   4X
2|------------3-2--3--------------------|   
3|---------------------2----------------|  
4|--------------------------------------|  
5|--------------------------------------|    
6|--------------------------------------|    

Маяковский жал курок
Жёг окурок,лил струю
Покатилось колесо 
Вот и собран урожай

     Под нейтральным небом
     Под нейтральным флагом 

         Самоотвод

1|--2--2--0----------------2-4--5--5--4-|   2X
2|------------3-2--3--------------------|   
3|---------------------2----------------|  
4|--------------------------------------|  
5|--------------------------------------|    
6|--------------------------------------| 

Можно играть ударами вниз.
Наверх