Аккорды Гражданская Оборона - Поезд на малую землю

Добавлено: @romashka
Дата добавления: 06 Августа 2022г.
Рейтинг:
0.0
Просмотров: 53
Транспонировать - +
3)-12--15-13-12-13-12----- 
4)---10--------------12-13      }2 
Cm(VIII) Fm(VIII) D(X) Cm(VIII) 
                
                   
2)---------13-11----------------- 
3)-10-12-13-----13-12-13-12-10--- 
4)----------------------------10-                         
Fm(VII) A#(VI) Cm(VIII)              
                                   }весь рифф играйте два раза 
 
2)---------13---------- 
3)-10-12-13---12-12-12- 
4)------------------10- 
Fm(VII) A#(VI) Cm(VIII) 
----------------------------------------------------------- 1ч. 
 
 
2)----------------13-11-------------------13-11- 
3)-11-13-10--10-13-----12--12-13-10--10-13------ 
4)---------11------------13--------11----------- 
   G#      C#       D#      G#      C#       D# 
 
 
2)----------------13-11-------------------13-11--- 
3)-11-13-10--10-13-----12--12-13-10--10-13-------- 
4)---------11------------13--------11------------- 
5)----------------------------------------------8- 
   G#      C#       D#      G#      C#       D# 
------------------------------------------------------------2ч. 
 
 
3)-12--15-13-12-13-12----- 
4)---10--------------12-13        }2 
Cm(VIII) Fm(VIII) D(X) Cm(VIII) 
 
 
2)---------13-11----------------- 
3)-10-12-13-----13-12-13-12-10--- 
4)----------------------------10-                         
Fm(VII) A#(VI) Cm(VIII)              
                 
                     
2)---------13---------- 
3)-10-12-13---12-12-12-     }2 
4)------------------10- 
Fm(VII) A#(VI) Cm(VIII) 
 
 
2)---------1------------------- 
3)-10-12-13---12-12-12--12--12- 
4)------------------10--10--10- 
Fm(VII) A#(VI) Cm(VIII) 
------------------------------------------------------------3ч. 
Наверх