Аккорды Гражданская Оборона - Со Скоростью Мира

Добавлено: @Jlblcblu
Дата добавления: 16 Марта 2013г.
Рейтинг:
0.0
Просмотров: 637
Транспонировать - +
E A H



E        F#m           H                 E
Птицы по утрам начинают сверкать
        G#m C#m
Что твоя роса
        A        H         C#m
Из окаянных божьих глаз
A    H   E
Жёлтое лето.

Звери по ночам басовито трубят
В трудовой норе
И ковыляет по холмам
Хвойное эхо.

E        C#m                A            E               G#
Сквозь огни, сквозь леса — на послушном ковре
      C#m     A           E               H
На заре, наяву, да со скоростью мира
A   H     E
Самое время.

Травы колосятся из пят земли
Словно из ведра
И никому не утолить
Их сладкое море.

Круглые деревья, тугие слоны
Голубая пыль
Блаженство ноющих сапог
Гиблое дело.

Сквозь очки, сквозь года — на мохнатом ковре
В серебре, на ветру, да со скоростью мира
Самое время.

Проигрыш:куплет+A,H,E.

Никто не говорил, что там будет легко -
На закате дней
          A    H   C#m
Однако звучная луна
          E     F#   G#m
Однако лишняя стена
          E        F#m   H
Однако прочно за окном -

Жёлтое лето
Сладкое море
Самое время
Самое время.
Самое время.
Самое время.
Самое время.
Самое время.
Самое время.
Самое время.
Самое время.
Самое время.
Самое время.
Самое время.
Соло:
E|----------------------------------------------------------|
B|------9------------------9-9-12-14-12-14-16-17-16-14-12---|
G|-9-11---9-11-11-9-8-9-11----------------------------------|
D|----------------------------------------------------------|
A|----------------------------------------------------------|
E|----------------------------------------------------------|

E|-------------------16-17-16-------------------------------|
B|-14-14-17-16-17-19----------19-17-9-10-9-10-12------------|
G|----------------------------------------------------9-11--|
D|-----------------------------------------------9-11-------|
A|----------------------------------------------------------|
E|----------------------------------------------------------|

E|----------------------------------------------------------|
B|----------------------------------------------------------|
G|-9-----------9--------------------------------------------|
D|---9-11-9-11----------------------------------------------|
A|----------------------------------------------------------|
E|----------------------------------------------------------|
comments powered by Disqus
Наверх