Аккорды «Grinspoon»

Grinspoon
Phil Jamieson и Kristian Hopes повстречались с Pat Davern и Joe Hansen на сходке в «The Gollan» 21 июля 1995. Эти четыре перца, вместе написали песню, которую назвали Clockwork. В тоже время, ребята анонсировались в Unearthed (соревнование которые помогают областным группам, выступить в эфире и помочь с записью дорожек), и стали одними из победителей в тройке J с песней Sickfest . Sickfest держалась на первом месте в тройке J, 7 недель, а группа Grinspoon поистине зажигали. Phil Jamieson:… Читать полностью... Phil Jamieson и Kristian Hopes повстречались с Pat Davern и Joe Hansen на сходке в «The Gollan» 21 июля 1995. Эти четыре перца, вместе написали песню, которую назвали Clockwork. В тоже время, ребята анонсировались в Unearthed (соревнование которые помогают областным группам, выступить в эфире и помочь с записью дорожек), и стали одними из победителей в тройке J с песней Sickfest . Sickfest держалась на первом месте в тройке J, 7 недель, а группа Grinspoon поистине зажигали. Phil Jamieson: Вокал Pat Davern: Соло гитара Joe Hansen: Бас Kristian Hopes: Ударник Grinspoon берут своё название от имени активиста пропаганды марихуаны, доктора Лестера Гринспун (Dr. Lester Grinspoon). Доктор Лестер Гринспун поддерживал мнение о пользе марихуаны в медицинских целях, а ребята из группы заинтересовались его видением и продолжают его начало в своем творчестве. Скрыть...
Популярные аккорды Grinspoon:
алфавиту | просмотрам | случайно
  • Drop D Tuning
    
    Verse
    -----10-------10--------10-------8------7------7----------
    --------10-------10--------10/8----8------8------8--------
    ----------------------------------------------------------
    -----------0---------0----------------0------0------------
    ----------------------------------------------------------
    -0------------------------------…
  • b = Bend
    h = Hammer on
    PM... = Palm Mute
    / = Pick Slide
    
    Intro
    e|------------------------------------------------|
    B|------------------------------------------------|
    G|-6-6--8-8--8b-8b--8-6---------------------------|
    D|-6-6--8-8---------------------------------------|
    A|-4-4--6-6---------------------------------------|
    E|------------------------------------------------|
    
    Verse…
  • TUNING: Drop-D (D-A-D-G-B-E)
    
    INTRO (Feedback from plugging in guitar)
    E |-------------------------------------------------|
    B |-------------------------------------------------|
    G |o--------------------------------------------o|
    D…
  • drop d tuning
    
    Intro & verse: play this through a few times
    --------------------------------------------------------------------|
    --------------------------------------------------------------------|
    --------------------------------------------------------------------|
    --------------------------------------------------------------------|
    -7-7-5-7-5------7-5-7-9-5--0-2-x-x-x--------------------------------|
    -----------0-2-------------0-2-x-x-x--------------------------------|
    
    Pre…
  • Tuning:Tuned down to D
    
    1st Riff
    e|--------------------------------------------------------------------------
    B|--------------------------------------------------------------------------
    G|--------------------------------------------------------------------------
    D|---4------4222--5555--h-5--0--h-2222--0--5555-------repeat-2x-------------
    A|---0-h-2--2222--3333--h-5--0--h-2222--0--3333-----------------------------
    D|----------------------h-5--0--h-2222--0-----------------------------------
    
    2nd…
  • Tuning: Standard
    
    / = pick slide down
    x = palm muted
    h = hammer on
    ~ = hold
    
    
    intro
    E|---------------------------------------------------------------------
    B|---------------------------------------------------------------------
    G|-14~--9--11~--6--9~--4--6~-------------------------------------------
    D|---------------------------------------------------------------------
    A|---------------------------------------------------------------------
    E|---------------------------------------------------------------------
    
    
    E|-------------------------|-------------------------------------------
    B|-------------------------|---swap…
  • Tuning: Dropped D Tuning
    
    Intro
    |-------------------|
    |-------------------|
    |-------------------|
    |--11-0--1--1-000---|
    
    
    Bridge
    |------------------|
    |------------------|
    |--------------5---|
    |--00-30-50-6-0----|
    
    
    Chorus
    |--------------------|
    |--------------------|
    |--3-33--666--5-555--|
    |--------------------|…
  • Drop D Tuning (low to high: D A D G B E)
    
    Intro
    
    (play 5 times)
    |-------------------------------|
    |-------------------------------|
    |-------3---1-----------3-------|
    |--00-0---0---0-3p0-2-3---------|
                  So you…
  • Tuning: Dropped D Tuning
    
    Intro
    |-------------------------------------------------------------------|
    |-------------------------------------------------------------------|
    |-------------------------------------------------------------------|
    |-4-4-444--2-2-22-22--0-0-0-0-0-2--4-4-444--2-2-22-22--0-0-0-4(1)--|
    
    
    Verse
    |---------------------------------------------------|
    |---------------------------------------------------|
    |--------------------5------------------------------|
    |-444---222---000--00-002--444---222---000--0000-02-|
    
    |--------------------------------------------------|
    |--------------------------------------------------|
    |-------------------5555---------------------------|
    |-444---222---000-------02--444---22222-0000-122-|
    
    
    Chorus
    |---------------------------------|
    |---------------------------------|
    |---------------------------------|
    |-4-4-444--2-2-2-2--0--0--0--0--0-|
    
    
    Interlude
    |-------------------------|
    |-------------------------|
    |-------------------------|
    |-4-4-/12--7-7-/12--2-2-0-|…
  • intro:
    G [-----------------------------|-----------------------]
    D [-----------------------------|-----------------------]
    A [-----------------------------|-----------------------]  play twice
    D [--5-3-0--2-3-2-0--3-5-3/6--5-|-5-3-0--2-3-2-0---6-6--]
    
    verses:
    G…
  • intro:
    G [---------------------]
    D [---------------------]
    A [--5p3p0-5p3p0--1-----]
    D [------------------3--]
    
    verse:
    G [------------------|------------------------]
    D [------------------|------------------------]
    A [------------------|-5--3-------------------]
    D…
  • Tuning: DADG
    
    Intro:
    G--------------------------------------------------------
    D--------------------------------------------------------
    A--------------------------------------------------------
    D--5---------4-------------5---------4-------------------…
  • Intro
    
    t |------o-o-------|
    T |----------o-----|
    s |o-ooo-----------|
    ft|------------o-o-|
    
    c |X---x---x---x---|x---x---x---x---|X---x---x---x---|x---x---x---x---|
    rd|--x---x---x---x-|--x---x---x---x-|--x---x---x---x-|--x---x---x-----|
    s…
  • Droped D tunning
    
    Riff 1:
    g |----------------------------|
    d |----------------------------|
    a |---3-5------3----3-5--------|
    d |-0------0-3----0------0-3-2-|
    
    Build Up:
    g |-----------------|
    d |-----------------|
    a |-3-3-3-3-3-3-3---|
    d…
  • Tuning: E,B,G,D,A,E
    
    Chords: G9=320033
            C= 032010
            Em=022000
            D= 000323
            A= 002220
            B= 024422
    
    Verse 1
    
    G9                     Em
      I never gave a reason of why I didn't call
    G9…
  • (drop D)
    
    INTRO
    G:-----------------------
    D:-----------------------
    A:-----------------------
    E:6p5p-0-55-6p5p-0-55-10-
    
    VERSE
    G:----------------
    D:----------------
    A:----------------
    E:65-0-55-65-0-55-
    
    PRE-CHORUS
    G:-----------------------------------------play…
  • Drop to D Tuning
    
    
    Intro
    
    |-----------------------|
    |-----------------------| (PLAY 4 TIMES)
    |----------5------------|
    |-9-9-9--4---0-55-77-88-|
    
    
    Verse
    
    |-----------------------|
    |-----------------------|
    |----------5------------|
    |-9-9-9--4---0-55-77-88-|
    
    
    Chorus
    
    |-----------------------------------|
    |-----------------------------------|…
  • Dropped D tuning (tune your E string down to D).
    
    INTRO (most Of the Song)
     
    G-|-------------------------------------|
    D-|-------------------------------------|
    A-|-------------------------------------|
    D-|0-0-0-0--0-0-3-3-3--3-3-3--5-5-*rest*|…
  • intro.chorus:
    G [-----------|----------|----------|----------]
    D [-----------|----------|----------|----------]
    A [-----------|----------|----------|----------]
    D [--3--3--3--|-5--5--5--|-3--3--3--|-5--5--5--]
    
    verse riff:
    G…
  • Tuning: D A D G B E
    
    Intro
    E 3------------2-3----------------3------------2-3---
    B -3-5------3-5---3-5--------------3-5------3-5---3-5
    G ----4-44-5---------4-44-5-4-2-0-----4-44-5---------
    
    E -----------
    B ------3-5--
    G…
  • Drop D Tuning (low to high: D A D G B E)
    
    Intro
    
    |----------|
    |----------|
    |----------|
    |----------|
    |----------|
    |--/16-----|
    
    (play 11 times)
    |-----------------|
    |-----------------|
    |-----------------|
    |-----------------|
    |-----------------|
    |--0-5-0-4-0-3-0--|
    
    |----------------|
    |----------------|
    |----------------|
    |----------------|
    |----------------|
    |--0-5-0-4-0-3b--|
    
    
    Verses
    
    |-----------------|
    |-----------------|
    |-----------------|
    |-----------------|
    |-----------------|
    |--0-5-0-4-0-3-0--|
    
    
    Chorus
    
    |------------------|
    |------------------|
    |------------------|
    |--5---4--00-00-0--|
    |--5---4--00-00-0--|
    |--5---4--00-00-0--|
    p.m....
    (play…
  • Chords:
    
    C     G   Cadd2/B  Am  Asus2   Em    F
    
    -0-   -3-   -0-    -0-   -0-   -0-   -1-
    -1-   -3-   -1-    -1-   -0-   -0-   -1-
    -0-   -0-   -0-    -2-   -2-   -0-   -2-
    -2-   -0-   -0-    -2-   -2-   -2-   -3-
    -3-…
  • Drop D Tuning (low to high: D A D G B E)
    
    
    Intro
    
    |---------------------------------------------|
    |---------------------------------------------|
    |---------------------------------------------|
    |-6-66-65-0-3-5-0-1-3----6-66-65-0-3-5-0-1-33-|
    |-6-66-65-0-3-5-0-1-3----6-66-65-0-3-5-0-1-33-|
    |-6-66-65-0-3-5-0-1-3----6-66-65-0-3-5-0-1-33-|
    
    
    Intro
    
    |-----------------------------------------------|
    |-----------------------------------------------|
    |-----------------------------------------------|
    |-----------------------------------------------|
    |-0-1-3----0-1-33-------------------------------|
    |-0-1-3----0-1-33-------------------------------|
    
    
    Chorus
    
    |-------------------------------------------|
    |-------------------------------------------|
    |-------------------------------------------|
    |-5-55-55-55/5-55-55-x-6-66-66-3-3-33-5-5-5-|
    |-3-33-33-33/5-55-55-x-6-66-66-3-3-33-5-5-5-|
    |--------------------x-6-66-66-3-3-33-5-5-5-|…
  • Tuning: Drop D (DADgbe)
    Intro
    e|-------------------------------------------------------------------------|
    B|-2-2-2-2-2-2-2-2-3-3-3-3-3-3-3-3-5-5-5-5-5-5-5-7-7-7-7-7-7-7-7--scrape---|
    G|-------------------------------------------------------------------------|
    D|-------------------------------------------------------------------------|
    A|-------------------------------------------------------------------------|
    D|--------------------------------------------------------------//---------|
    
    Chorus…
  • Drop D
    
    Intro/verse riff
    E----------------------------------------------------------------------|
    b----------------------------------------------------------------------|
    g----------------------------------------------------------------------|
    d----------------------------------------------------------------------|
    a------10------9h10-9------7------9------10------9h10-9------7------5--|
    d-0000----0000--------0000---0000---0000----0000--------0000---0000----|
    
    Chord…
  • Tuning: Dropped D Tuning
    
    
    Intro
    |---------------------------------|
    |---------------------------------|
    |--------------------------1-1-1--|
    |--0-2-3-0-2-3-0-2-3-0-2-3--------|
    
    
    Verse
    |------------------------------------------|
    |------------------------------------------|
    |------------------------------------------|
    |-0-0-0-0-10-10-10-10-0-0-0-0-10-10-10-10--|
    
    |-----------------------------------|
    |-----------------------------------|
    |-----------------------------------|
    |--5-5-5-5-3-3-3-5/6/5-5-5-5-3-3-3--|
    
    
    Interlude
    |---------|
    |---------|
    |---------|
    |-0-0-0-0-|…
  • Drop D Tuning
    
    Intro
    -----------------------------------------------------------
    -----------------------------------------------------------
    -0-0-5-0-7-0--------5-0-7-0---------5-0-4-5-5-----5-5-5-4-0
    -------------0--------------0---2-2-----------3-3----------
    ----------------3-3----------------------------------------
    -----------------------------------------------------------
    
    
    -----------------------------------------------------------
    -----------------------------------------------------------
    -0-0-5-0-7-0---------3-3-3-2-0-----5-5-5--5-5-5-5----------
    -------------0---------------------5-5-5--5-5-5-5----------
    ----------------1-1----------------3-3-3--3-3-3-3----------
    -----------------------------------------------------------…
  • Tuning: Normal
    
    e|--------------------------------------------------------------------------|
    B|--------------------------------------------------------------------------|
    G|--------------------------------------------------------------------------|
    D|----4--4-4---6--6-6---9--9-9---6-8-6b-------------------------------------|
    A|----4--4-4---6--6-6---9--9-9---6-8-6b-------------------------------------|
    E|----4--4-4---6--6-6---9--9-9---6-8-6b-------------------------------------|
    
    b=…
  • Drop D Tuning (low to high: D A D G B E)
    
    
    Intro
    
    |-------------------------------------------|
    |-------------------------------------------|
    |-------------------------------------------|
    |-------------------------------------------|
    |-3h5----3h5--------3h5-5h6----3h5--------3-|
    |-----00-----00-3h5---------00-----00-3h5---|
    
    |---------|
    |---------|
    |---------|
    |-00---00-|
    |-00---00-|
    |-00---00-|
    
    
    Chorus
    
    |---------------------------|
    |---------------------------|
    |---------------------------|
    |-00-------3--00-------3tr4-|
    |-00-5-3-5----00-5-3-5------|
    |-00----------00------------|
    
    |---------------|
    |---------------|
    |---------------|
    |-00-------3--2-|
    |-00-5-3-5-1--0-|
    |-00------------|…
  • INTRO
    G:--------------------------------
    D:--------------------------------
    A:--------------------------------
    E:3p0-0-3p0-0-5p0-3p0-0-3p0-0-3p0-
    
    G:-----------------------|--------------------------
    D:-----------------------|--------------------------
    A:-----------------------|--------------------------
    E:3p0-3p0-0-5p0-3p0-03/6-|3p0-0-3p0-0-5p0-3p0-0-3-3-
    
    PLAY…
  • Tuning: Dropped D Tuning
    
    Intro/Verse
    G|---------------|
    D|---------------|
    A|---------------|
    D|-55-53-5-/8-88-|
    
    G|-------------|
    D|-------------|
    A|-------------|
    D|-33-30-03-03-|
    
    Chorus
    G|-------------------------------|
    D|-------------------------------|
    A|-------------------------------|
    D|-55-55-11111111-55-55-10101010-|
    
    G|----------------------------------|
    D|----------------------------------|
    A|----------------------------------|
    D|-55-55-11111111-55-55-8-10-8-10-3-|
    
    Interlude
    G|---------|
    D|---------|
    A|---------|
    D|-511-510-|
    
    Outro
    G|---|
    D|---|
    A|---|
    D|-5-|…
  • Drop E to D
    
    Intro/Verse/Bass Solo/Guitar Solo
    G:--------------------------------------|
    D:--------------------------------------|
    A:--------------------------------------|
    D:0-1-1-1-0-1-1-1-0-1-1-0-1-1-1-0-1-1-1-|
    You may…
  • Tuning: Drop D
        
      Intro: x4                          
    e|---------------------------------------------------------------------------|
    B|---------------------------------------------------------------------------|
    G|-----------2---2------------2---2/4-----------2---2------------2---2-------|
    D|---------4---4---4--------4---4-------------4---4---4--------4---4---4-----|
    A|-----2-2-------------------------------------------------------------------|
    E|-----------------------3-3---------------2-2---------------0-0-------------|…
  • INTRO(X4)/VERSE(X2)
    Pt 1
    -----------------------
    -------10--------------
    -7-7-7----7-7-8--------
    ----------------------- X3
    -----------------------
    -----------------------
    
    -----------------------
    -----------------------
    -7-8-8-10-10-10-------
    -----------------------…
  • Chord Chart
    
      Em   F#x  Gx   Bm/A     Em(chorus)  F#m(chorus) G(up neck)
    
    E-0----0----0-----2--------7-----------9----------10---|
    B-0----0----0-----3--------8-----------10---------11---|
    G-9----3----4-----4--------9-----------11---------12---|
    D-9----4----5-----4--------9-----------11---------12---|
    A-7----4----5-----0--------7-----------9----------10---|
    e-x----2----3-----x--------x-----------x----------x----|
    
    Riffs
    
    Riff…
  • Drop D Tuning (low to high: D A D G B E)
    
    Intro
    
    w/5c coin used as a pick
    
      (play 4 times)
    |--------------------------------------|
    |--------------------------------------|
    |--------------------------------------|
    |--4444-54--7777-87--4444-54--8888-75--|
    |--4444-54--7777-87--4444-54--8888-75--|
    |--4444-54--7777-87--4444-54--8888-75--|…
  • TUNING: DROP D (DADGBE)
    
    Legend:
    PM - palm mute
    X - muted string
    h - hammer on
    p - pull off
    (lr) - let ring
    /- slide up
    b - bend
    
    NOTE: This tab is not written to exact time. listen to the cd
    to get that.
    
    
    INTRO/MAIN RIFF:…
  • Intro/Bridge
    E-------------------------------|
    b-------------------------------|
    g---5---------------------------|
    d---5--5--5-------5--7--5--7----|
    a---3--5--5-------5--7--5--7----|
    e------3--3-------3--5--3--5----|
    
    
    Verse…
  • tuning is drop D (for those who don\'t know: tune your top E string to your 4th string, D)
     s = slide
     h = hammer on
    
    INTRO
    E|----------------0-0------------0-0------------0-0------------0-0-|
    B|----------------3-3------------3-3------------3-3------------3-3-|
    G|----------------2-2------------2-2------------2-2------------2-2-|
    D|-12s-2-5-2s-7-8-0-0-2-5-2s-7-8-0-0-2-5-2s-7-8-0-0-2-5-2s-7-8-0-0-|
    A|-12s-2-5-2s-7-8-0-0-2-5-2s-7-8-0-0-2-5-2s-7-8-0-0-2-5-2s-7-8-0-0-|
    D|-12s-2-5-2s-7-8-0-0-2-5-2s-7-8-0-0-2-5-2s-7-8-0-0-2-5-2s-7-8-0-0-|
    
    INTRO…
  • b: Bend
    h: Hammer on
    PM... :Palm Mute
    / Slide
    
    Drop D Tuning
    
    Verse
    E|-------------------------------------------------|
    B|-------------------------------------------------|
    G|-------------------------------------------------|
    D|-------0-0-0---0-0-0-0---------------------------|
    A|-3h4h5-0-0-0---0-0-0-0---------------------------|
    D|-3h4h5-0-0-0---0-0-0-0---------------------------|
    
    Pre…
  • Tuning: Dropped D Tuning
    
    Intro
    G|---------------------|
    D|---------------------|
    A|---------------------|
    D|-0-66-5-3-0-66-5-3-0-|
    
    Chorus
    G|---------------------|
    D|---------------------|
    A|---------------------|
    D|-0-66-5-3-0-66-5-3-0-|
    
    G|------------------|
    D|------------------|
    A|------------------|
    D|-333333333-5555-6-|
    
    Interlude
    G|----------------|
    D|----------------|
    A|----------------|
    D|-0-0-65-66-55-3-|
    
    Outro
    G|------------|
    D|------------|
    A|------------|
    D|-0-66-5-3-0-|…
  • e|---------------------------------------------------------------------------|
    B|---------------------------------------------------------------------------|
    G|---------------------------------------------------------------------------|
    D|--0----0-----3------3--------0-------0--------0----------------------------|
    A|--0----0-----3------3--------0-------0--------0----------------------------|
    E|--0----0-----3------3--------0-------0--------0----------------------------|
    
    e|---------------------------------------------------------------------------|
    B|---------------------------------------------------------------------------|
    G|---------------------------------------------------------------------------|
    D|-----------3------3----3----0-------0--------0-----------------------------|
    A|-----------3------3----3----0-------0--------0-----------------------------|
    E|-----------3------3----3----0-------0--------0-----------------------------|
    
    e|---------------------------------------------------------------------------|
    B|---------------------------------------------------------------------------|
    G|---------------------------------------------------------------------------|
    D|-----------3------3----3----0-------0--------0-----------------------------|
    A|-----------3------3----3----0-------0--------0-----------------------------|
    E|-----------3------3----3----0-------0--------0-----------------------------|
    
    e|---------------------------------------------------------------------------|
    B|---------------------------------------------------------------------------|
    G|---------------------------------------------------------------------------|
    D|-----------3-------3--------4--------4--------4----------------------------|
    A|-----------3-------3--------4--------4--------4----------------------------|
    E|-----------3-------3--------4--------4--------4----------------------------|
    
    
    |…
  • Drop D tuning, down 1/2 step:
    (low to high) Db-Ab-Db-Gb-Bb-Eb
    
     Intro: (dist.)
    
                                       D5
    eb|---------------------------------------------------|
    Bb|---------------------------------------------------|
    Gb|---------------------------------------------------|
    Db|--------------------------------7--7--7--7--7--7---|
    Ab|--------------------------------5--5--5--5--5--5---|
    Db|--0--2-----0--2-----0--2-----0---------------------|…
  • Drop D
    
    Intro					x2
    |--------------------------------------------------------------------|
    |--------------------------------------------------------------------|
    |--------------------------------------------------------------------|…
  • Intro/Chorus
    E--0--0-------0--0-----|
    b--0--0-------0--0-----|
    g--1--2----or-x--x-----|
    d--2--2-------6--7-----|
    a--0--0-------7--7-----|
    e-------------5--5-----|
    
    Verse
    E--0--0--0--0--|
    b--0--0--0--3--|
    g--1--1--1--2--|
    d--2--2--2--0--|
    a--0--x--2-----|
    e-----2--0-----|
    
    Prechorus
    E--0---4--0--0--|
    b--0---5--3--1--|
    g--1---6--2--2--|
    d--2---6--0--3--|
    a--0---4-----3--|
    e------------1--|
    
    Second…
  • Drop D Tuning
    
    INTRO/CHORUS
    E|-------------------------------|
    B|-------------------------------|
    G|-------------------------------|
    D|-0-----------------------3-2-1-|
    A|-0-5-3-5-3---5-3---5-5---3-2-1-|
    D|-0---------0-----0-----0-3-2-1-|
    
    VERSE…
  • DROP D: 
     
    INTRO/BASS 
    G|---------------------------------------------------| 
    D|---------------------------------------------------| 
    A|--8\5--5\3-----------------8\5--5\3----------------| 
    D|--------------0-3-5-3-0-----------------0-3-5-3-0--|…
  • Intro: G
    
    G                           F
      Woke up to find you weary,
                                 G
      Left hand was in the red room,
                                      F
      My, my our thoughts were black then,…
  • Drop D Tuning (low to high: D A D G B E)
    
    Intro
    
    |--------------|---------------------------------------------------|
    |--------------|---------------------------------------------------|
    |--------------|-107--75----------------107--73--------------------|
    |--|==BASS==|--|-------------0-3-5-3-0-----------------0-3-5-3-0---|
    |--------------|--85--53---0-3-5-3-0-----85--53----0-3-5-3-0-------|
    |--------------|-------------0-3-5-3-0-----------------0-3-5-3-0---|
    
    Pre-Chorus
    
    |--------------------------------------------------|
    |--------------------------------------------------|
    |-7-xx-5/7-7-xxxx-107-7--7-xx-5/7-7-xxxx-107-7-----|
    |---xx-------xxxx-----------xx-------xxxx----------|
    |-5-xx-3/5-5-xxxx-8-5-5--5-xx-3/5-5-xxxx-8-5-5-----|
    |-0----0------------------0----0-------------------|
    
    Chorus
    
    |---------------------------------------------------|
    |---------------------------------------------------|
    |-107--75----------------107--73--------------------|
    |-------------0-3-5-3-0-----------------0-3-5-3-0---|
    |--85--53---0-3-5-3-0-----85--53----0-3-5-3-0-------|
    |-------------0-3-5-3-0-----------------0-3-5-3-0---|
    
    
    Bridge
    
    |--------------------------------|
    |--------------------------------|
    |--------------------------------|
    |-0-2-3-2-3-2-0----0-2-3-2-3-2-0-|
    |-0-2-3-2-3-2-0----0-2-3-2-3-2-0-|
    |-0-2-3-2-3-2-0----0-2-3-2-3-2-0-|…
  • (drop D)
    
    INTRO/VERSE
    G:------------------------------
    D:------------------------------
    A:------------------------------
    E:03503503503--0350355/10101010-
    
    CHORUS
    G:--------------------------
    D:--------------------------
    A:--------------------------
    E:121212-10101010-121212-10-
    
    G:----------------------------
    D:----------------------------
    A:----------------------------
    E:101010-121212-101010-333333-
    
    INTERLUDE
    G:---------------------
    D:---------------------
    A:---------------------
    E:0~---1--0--311331013-
    
    OUTRO
    G:-------
    D:-------
    A:-------
    E:3>-750-…
  • Tuning: Dropped D Tuning
    
    Intro
    |-----|
    |-----|
    |-----|
    |-10-|
    
    Verse
    |-------------------------------------------|
    |-------------------------------------------|
    |-------------------------------------------|
    |-0-0-6-6-0-0-6-66--3-3-3-3-3-3-3-3-3-3-3-3-|
    
    Pre-Chorus
    |----------|
    |----------|
    |----------|
    |-5-56-5-3-|
    
    Chorus
    |----------------------------------|
    |----------------------------------|
    |----------------------------------|
    |-0-00-00-8-88-88-3-33-33-5-55-5-3-|
    
    Bridge
    |----------------------------------------|
    |----------------------------------------|
    |----------------------------------------|
    |-7-76-3-5--7-76-3-5--7-76-3-5--7-76-5-3-|…
  • verse
    
         C#    E     B    A     F      E     A     B
    e|-------------------------------------------------|
    B|-------------------------------------------------|
    G|---6-----9-----4-----2-----------------2-----4---|
    D|--6-6---9-9---4-4---2-2----4-----2----2-2---4-4--|…
  • Drop D Tuning (low to high: D A D G B E)
    
    Intro
    
    w/clean tone
    |--------------------------------------|
    |--------------------------------------|
    |--------------------------------------|
    |----7----7----7----7----7----7-777777-|
    |-55-5-55-5-55-5-55-5-55-5-55-5-555555-|
    |--------------------------------------|
    pm…
  • Drop E to D
    
    Intro:-Guitar only
    
    verse:
    D:-0-0-0-0-0-0-0-0-0-0-0-0-2-3-0-0-0-0-0-0-0-0-0-0-0-0-3-2-|
    When u hear guitar change chords
    chorus:-
    D:-0---0---0--3-5-3-0-|
    repeat over till verse comes back
    Variation:-Where he…
  • Intro/Main Riff
    E-------------------------------------|
    b-------------------------------------|
    g-------------------------------------|
    d-------------------------------------|
    a---7-7-7-7-7-5-----------------------|x8
    e----------------7---3-3-3-0--5---3---|
    
    
    Verse
    
    
    E------------------------------|
    b------------------------------|
    g---9-9-9-9-9-7----------------|
    d---9-9-9-9-9-7--5-5-5-5-5-5---|
    a---7-7-7-7-7-5--5-5-5-5-5-5---|x4
    e----------------3-3-3-3-3-3---|
    
    Prechorus/Verse…
  • Intro/Verse:
    
    Guitar 1
    e|-------------------------------------------------------|
    B|-------------------------------------------------------|
    G|-------------------------------------------------------|
    D|------5---4------------------------5---7---------------|
    A|--------------5---2---0h-2p0----------------7---5---2--|
    D|--0-0---0---0---0---0--------0-0-----0---0---0---0-----|
    
    
    
    Guitar…
  • Pt 1
    
    E|-------------------------------------|
    B|-------------------------------------|
    G|--7777--------10101010---------------|
    D|--7777-888888-10101010-101010101010--|
    A|--5555-888888-8-8-8-8--101010101010--|
    E|-------666666----------8-8-8-8-8-8---|
    
    
    Pt…
  • Drop D Tuning (low to high: D A D G B E)
    
    Intro
    
    (play 4 times)
    |---------------------------------------|
    |---------------------------------------|
    |---------------------------------------|
    |--12-11-10-12-11-10-12-11-10-12-11-10--|
    |--12-11-10-12-11-10-12-11-10-12-11-10--|
    |--12-11-10-12-11-10-12-11-10-12-11-10--|
    
    
    Verses
    
    (play…
  • Intro/Prechorus
    E---------------------|
    b---------------------|
    g---0-0--0---0-----0--|
    d---2-2--4-----4------|
    a---3-3--5-------5----|
    e---------------------|
    
    Verse
    E---0--0--0--0---0--0--0---0---3-3-2-2--|
    b---3--1--3--3---0--3--3---0---0-0-0-0--|
    g---0--0--0--2---0--0--2---0---0-0-0-0--|
    d---2or2--4or0---2--2--0---2---2-2-2-2--|
    a---3--3--5------2--3------2---2-2-2-2--|
    e----------------0---------0---0-0-0-0--|
    
    Chorus
    E------0-0-x---------------------0-x------------------|
    b--5-5-1-0-3---------------------1-3------------------|
    g--5-5-2-0-0---------------------2-0------------------|
    d--5-5-2-2-0--x2-3-3-3-3-2-2-2-2-2-0-3-3-3-3-2-2-2-2--|
    a--3-2-0-2-x-----3-3-3-3-2-2-2-2-0-x-3-3-3-3-2-2-2-2--|
    e--------0-3-----1-1-1-1-0-0-0-0---3-1-1-1-1-0-0-0-0--|
    
    Solo
    E-------------------------------------------------------|
    b------------------------------------8------------------|
    g--7-9-7-9-9-7-------------7h9-9-7-9---9-9-7------------|
    d--------------9-8-7-------------------------9-8-7------|
    a--------------------10-7--------------------------10-7-|
    e-------------------------------------------------------|
    
    E------0-0-----0-0--0--------------------------|
    b--5---5-5-5---5-5--5--------------------------|
    g--7b9-9-9-7b9-9-9--9b7-4--and…
  • Standard Tuning (low to high: E A D G B E)
    
    Intro
    
    |---------------------------------------|
    |---------------------------------------|
    |---------------------------------------|
    |---------------------------------------|
    |--2----6(5)----5(4)----4(3)-33---------|
    |--0--x-4(3)--x-3(2)--x-2(1)-11-3b------|
    
    
    Chorus
    
    |-----------------------------|
    |-----------------------------|
    |-----------------------------|
    |--2-2-2-2-6-6-6-6-5-5-5-5-4--|
    |--2-2-2-2-6-6-6-6-5-5-5-5-4--|
    |--0-0-0-0-4-4-4-4-3-3-3-3-2--|…
  • Note: Chords for guitar 2 in the prechorus are lacking
    
    INTRO
    
    E------2--------2------------1-------1--------|
    b----1---1----1---1----1---1---1---1---1---1--|
    g---------------------------------------------|
    d--0--------0--------0---0-------0-------0----|
    a---------------------------------------------|
    d---------------------------------------------|
    
    
    Pre…
  • Drop D Tuning (low to high: D A D G B E)
    
    Intro
    
    |----------------------------------------|
    |--8--8-----10-10----13--13------4--7----|
    |--7--7-----9--9-----12--12------5--6----|
    |--5--5-----7--7-----10--10-----0--4-----|
    |--5--5-----7--7-----10--10-----0--4-----|
    |--5--5-----7--7-----10--10--------4-----|
    
    
    Chorus
    
    |------|
    |--13--|
    |--12--|
    |--10--|
    |--10--|
    |--10--|
    
    
    |-------------------------------|
    |-------------------------------|
    |-------------------------------|
    |--11-11--2-2----4-4-4-4-4-4-4--|
    |--11-11--2-2----4-4-4-4-4-4-4--|
    |--11-11--2-2----4-4-4-4-4-4-4--|…
  • Drop D Tuning (low to high: D A D G B E)
    
    Intro
    
    
    |------------------------------------------------------------------------|
    |------------------------------------------------------------------------|
    |------------------------------------------------------------------------|
    |-6-0-0-0-0-0-0-0--6-0-0-0-0-0-0-0--6-0-0-0-0-0-6-6--6-0-0-6-6-6-0-0-6-6-|
    |-6-0-0-0-0-0-0-0--6-0-0-0-0-0-0-0--6-0-0-0-0-0-6-6--6-0-0-6-6-6-0-0-6-6-|
    |-6-0-0-0-0-0-0-0--6-0-0-0-0-0-0-0--6-0-0-0-0-0-6-6--6-0-0-6-6-6-0-0-6-6-|
    
    
    Chorus
    
    |-----------------------------------------------------|
    |-----------------------------------------------------|
    |-----------------------------------------------------|
    |-0-2-0-2-0-2-0-2-0-2-2-2-2-2-2-2-2-2-2-2-2-2-2-2-2-2-|
    |-0-2-0-2-0-2-0-2-0-2-2-2-2-2-2-2-2-2-2-2-2-2-2-2-2-2-|
    |-0-2-0-2-0-2-0-2-0-2-2-2-2-2-2-2-2-2-2-2-2-2-2-2-2-2-|
    
    |-----------------------------------------------------------------|
    |-----------------------------------------------------------------|
    |-----------------------------------------------------------------|
    |-14-14-14-14-12-12-12-12-11-11-11-11-10-10-10-10-14-14-9-14-14-9-|
    |-14-14-14-14-12-12-12-12-11-11-11-11-10-10-10-10-14-14-9-14-14-9-|
    |-14-14-14-14-12-12-12-12-11-11-11-11-10-10-10-10-14-14-9-14-14-9-|…
  • Intro: 
    
    |-----------------------------------------------------------|
    |-----------------------------------------------------------|
    |-----------------------------------------------------------|
    |--------------------------------3--------------------------|…
  • Tuning - Standard tuning
    
    Guitar plays Cord once then bass comes in
    Intro:
    G---------------------------|
    A---------------------5---7-|
    D----5---7------------------|
    E---------------------------|
    
    Verse:
    G-------------------------------|
    A---------------5--7777777------|
    D----5---7777777----------------|
    E-------------------------…
  • intro
    e|---------------------------------------------------------------------------|
    B|---5-4--------------3--2---------------------------------------------------|
    G|-2--2------4--3---0--0------2---1------------------------------------------|
    D|---------2--2-------------0---0--------------------------------------------|
    A|---------------------------------------------------------------------------|
    E|---------------------------------------------------------------------------|
    
    verse
    e|---------------------------------------------------------------------------|
    B|-5-5-4-5---------3-3-2-3---------------------------------------------------|
    G|---------4-4-3-4----------2-2-1-2------------------------------------------|
    D|---------------------------------------------------------------------------|
    A|---------------------------------------------------------------------------|
    E|---------------------------------------------------------------------------|
    
    chorus
    e|-----------|
    B|-----------|
    G|-7---------|
    D|-7------2--|…
  • PM~= PALM MUTE
    s= SLIDE
    ^^= BEND UP A WHOLE TONE
    ^= BEND UP A HALF TONE
    VV= BEND DOWN A WHOLE TONE
    V= BEND DOWN A HALF TONE
    
    THIS SONG USES 1/2 A STEP FORWARD THAN STANDARD USING DROP D (D# A# D# G# C F)
    
    
    PRE…
  • Tuning: Drop D (DADGBE)
    Intro
    E|-------2---------------|
    B|-----2---2-----2-----4-|
    G|---3---------3-----3---|
    D|-0---------2-----2-----|
    A|-----------------------|
    D|-----------------------|
    
    Main Riff/Chorus ("Somebody…
  • Standard tuning
    P.M. = Palm Mute
    
    VERSE RIFF:
    E-|--------------------------|-
    B-|--------------------------|-
    G-|-4-4-4--4-4--4-4-2--7-----|-
    D-|-4-4-4--4-4--4-4-2--7--2--|-
    A-|-2-2-2--2-2--2-2-0--5--2--|-
    E-|-----------------------0--|-
    
    PRE…
  • Intro:
    
    Rhythm Guitar:
    e|---------------------------------------------------------------------------------|
    B|---------------------------------------------------------------------------------|
    G|---------------------------------------------------------------------------------|
    D|--2-2-2-2-2-2-2-2--10-10-10-10-10-10-10-10--7-7-7-7-7-7-7-7--9-9--7-7--5-5--4-4--|
    A|--2-2-2-2-2-2-2-2--10-10-10-10-10-10-10-10--7-7-7-7-7-7-7-7--9-9--7-7--5-5--4-4--|
    E|--0-0-0-0-0-0-0-0---8--8--8--8--8--8--8--8--5-5-5-5-5-5-5-5--7-7--5-5--3-3--2-2--|…
  • Intro
    e|----8------------------------------------------------------------|
    B|----8------------------------------------------------------------|
    G|----0------------------------------------------------------------|
    D|----x------------------------------------------------------------|
    A|----7------------------------------------------------------------|
    E|----8------------------------------------------------------------|
    
    Verse…
  • Tuning DADGB
    
    *You can figure out the struming parts i just tabbed the basic bits.
    
    Intro
    
    |-----|-------------------------------------------------------|
    |-----|----10-10-10-10----------------------------------------|
    |-----|----10-10-10-10----------------------------------------|
    |---2-|----10-10-10-10--etc-----------------------------------|
    |---2-|----0--0--0--0--------slide--12/6----------------------|
    |---2-|----0--0--0--0---------------12/6----------------------|
    
    |------------------------------------------------------------|
    |-Play-Fast--------------------------------------------------|
    |------------------------------------------------------------|
    |---0-3---5--7-----0-3--5--0-3--5--7--0-3--5-----------------|
    |---0-3---5--7-----0-3--5--0-3--5--7--0-3--5-----------------|
    |---0-3---5--7-----0-3--5--0-3--5--7--0-3--5-----------------|
    
    |------------------------------------------------------------|
    |-Palm-Mute--------------------------------------------------|
    |------------------------------------------------------------|
    |---0-3---5--7-----0-3--5--0-3--5--7--0-3--5-----------------|
    |---0-3---5--7-----0-3--5--0-3--5--7--0-3--5-----------------|
    |---0-3---5--7-----0-3--5--0-3--5--7--0-3--5-----------------|
    
    |------------------------------------------------------------|
    |-Play-Fast--------------------------------------------------|
    |------------------------------------------------------------|
    |---0-3---5--7-----0-3--5--0-3--5--7--0-3--5-----------------|
    |---0-3---5--7-----0-3--5--0-3--5--7--0-3--5-----------------|
    |---0-3---5--7-----0-3--5--0-3--5--7--0-3--5-----------------|
    
    |------------------------------------------------------------|
    |-Palm-Mute--------------------------------------------------|
    |------------------------------------------------------------|
    |---0-3---5--7-----0-3--5--0-3--5--7--0-3--5-----------------|
    |---0-3---5--7-----0-3--5--0-3--5--7--0-3--5-----------------|
    |---0-3---5--7-----0-3--5--0-3--5--7--0-3--5-----------------|
    
    Verse
    
    |------------------------------------------------------------|
    |--------10-10-10-10-----------------------------------------|
    |--------10-10-10-10-----------------------------------------|
    |--------10-10-10-10--etc------------------------------------|
    |--------0--0--0--0--------slide--12/6-----------------------|
    |--------0--0--0--0---------------12/6-----------------------|
    
    Chorus
    
    |-----------|---------------------------------|---------------|
    |-----------|---------------------------------|---------------|
    |-----------|--10-10-10-----------------------|---------------|
    |---0--0--0-|--10-10-10-0-5-5-5-3-5-3-5-3--0--|---------------|
    |---0--0--0-|--8--8--8--0-5-5-5-3-5-3-5-3--0--|---------------|
    |---0--0--0-|-----------0-5-5-5-3-5-3-5-3--0--|---------------|
    
    |--------------------------|----------------------------------|
    |--10----------------------|--10--10--------------------------|
    |--10----------------------|--10--10--------------------------|
    |--10---0-5-5-5---3-3--0-2-|--10--10--------------------------|
    |--8----0-5-5-5---3-3--0-2-|--0---10--------------------------|
    |-------0-5-5-5---3-3--0-2-|--0---0---------------------------|
    
    All…
  • Drop D Tuning (low to high: D A D G B E)
    
    Intro
    
    fdbk.
    |------|
    |------|
    |------|
    |--0~--|
    |--0~--|
    |--0~--|
    fade in
    
    |------------------|
    |-------------12b--|
    |--12-11-10~--12b--|
    |------------------|
    |------------------|
    |------------------|
    
    
    Verse
    
    |----------------|
    |----------------|
    |----------------|
    |--10-10--12-12--|
    |--10-10--12-12--|
    |--10-10--12-12--|
    
    |----------------------|
    |----------------------|
    |----------------------|
    |--0--0-3--0-0--0-3-5--|
    |--0--0-3--0-0--0-3-5--|
    |--0--0-3--0-0--0-3-5--|
    
    
    Chorus
    
    |---------------------------------------------|
    |---------------------------------------------|
    |--5--5--5-5----------------------------------|
    |--5--5--5-5--5--5--5-5--0--0-3--0-0--0-33-5--|
    |--3--3--3-3--5--5--5-5--0--0-3--0-0--0-33-5--|
    |-------------5--5--5-5--0--0-3--0-0--0-33-5--|
    
    
    Solo
    
    (play…
  • Tuning: Dropped D (DADGBe Low to High)
    
    
    Key:
    /= slide up
    = slide down
    h= hammer on
    p= pull-off
    x= mute string
    .= palm mute
    ,= slight palm mute
    ~= Let Ring
    
    Intro/Chorus:
    e--------------------|---------------------------|
    B--------------------|---------------------------|
    G--------------------|---------------------------|
    D-6666-5555-33333333-|6666-5555-1010101010101010-|
    A-4444-3333-33333333-|4444-3333--8-8-8-8-8-8-8-8-|
    D-----------33333333-|---------------------------|
    
    e--------------------|------------------------------|
    D--------------------|------------------------------|
    G--------------------|------------------------------|
    D-6666-5555-33333333-|-88888888---------------------|
    A-4444-3333-33333333-|-66666666-2222-4444-5555-4444-|
    D-----------33333333-|------------------------------|
    
    Verse:
    e-----------------|
    B-----------17~---|
    G-------------16~-|…
  • the heavy riff is:
    
    
    e|--------------------------------------|
    B|--------------------------------------|
    G|--------------------------------------|
    D|---0----3p0-3p0-0-0-7p0-0-8p0-0-3-----|
    A|---0----3p0-3p0-0-0-7p0-0-8p0-0-3-----|
    D|---0----3p0-3p0-0-0-7p0-0-8p0-0-3-----|
    
    
    
    And…
  • VERSE RIFF:
    E-|--------------------------|-
    B-|--------------------------|-
    G-|-4-4-4--4-4--4-4-2--7-----|-
    D-|-4-4-4--4-4--4-4-2--7--2--|-
    A-|-2-2-2--2-2--2-2-0--5--2--|-
    E-|-----------------------0--|-
    
    PRE CHORUS:…
Наверх