Аккорды Gustavo Santaolalla - The Last Of Us

Добавлено: @romashka
Дата добавления: 22 Октября 2017г.
Рейтинг:
0.0
Просмотров: 294
Транспонировать - +
e|------0-----0-----0-----0-----0-----0--| 
B|----0-----0-----0-----0-----0-----0----| 
G|--12----12----12----12----12----12-----| 
D|---------------------------------------| 
A|---------------------------------------| 
E|---------------------------------------| x5 

Refrain: 
e|------0-----0-----0-----0-----0-----0-----0-----0-| 
B|----0-----0-----0-----0-----0-----0-----0-----0---| 
G|--12----9-----14----11----12----12----12----12----| 
D|--------------------------------------------------| 
A|--------------------------------------------------| 
E|--------------------------------------------------| 
                        
e|------0-----0-----0-----0--------0-----0-----0-----0-| 
B|----0-----0-----0-----0--------0-----0-----0-----0---| 
G|--12----9-----14----11----14/16----16----16----16----| 
D|-----------------------------------------------------| 
A|-----------------------------------------------------| 
E|-----------------------------------------------------| 

e|------0--------0-----0-----0-----0-----0-----0-----0-| 
B|----0--------0-----0-----0-----0-----0-----0-----0---| 
G|--12h14p12-9-----14----11----12----12----12----12----| 
D|-----------------------------------------------------| 
A|-----------------------------------------------------| 
E|-----------------------------------------------------| 

e|------0-----0------------0-----0-------0--|------0-----0-----0-| 
B|----0-----0------------0-----0-------0----|----0-----0-----0---| 
G|--15----14-----12h14p12----9-----7h9------|--9-----9-----9-----| 
D|------------------------------------------|--------------------| 
A|------------------------------------------|--------------------| 
E|------------------------------------------|--------------------| 
                                                       4x 

e|--10----10----10----10----9-----9-----9-----9-----| 
B|------0-----0-----0-----0-----0-----0-----0-----0-| 
G|----9-----9-----9-----9-----9-----9-----9-----9---|
D|--------------------------------------------------| 
A|--------------------------0-----------------------| 
E|--0-----------------------------------------------| 

e|--8-----8-----8-----8-----7-----7-----7-----7-----| 
B|------0-----0-----0-----0-----0-----0-----0-----0-| 
G|----9-----9-----9-----9-----9-----9-----9-----9---| 
D|--------------------------------------------------| 
A|--0-----------------------------------------------| 
E|--------------------------0-----------------------| 

e|--10----10----10----10/12-10-9-----9-----9-----9-----| 
B|------0-----0-----0--------------0-----0-----0-----0-| 
G|----9-----9-----9--------------9-----9-----9-----9---| 
D|-----------------------------------------------------| 
A|-----------------------------0-----------------------| 
E|--0--------------------------------------------------| 

e|--8-----8-----8-----8-----7-----7-----7-----7-----| 
B|------0-----0-----0-----0-----0-----0-----0-----0-| 
G|----9-----9-----9-----9-----9-----9-----9-----9---| 
D|--------------------------------------------------| 
A|--0-----------------------------------------------| 
E|--------------------------0-----------------------| 

e|--5-----5-----5-----5-----5---------3-----2-----0h2p0-------------| 
B|----0-----0-----0-----0-----0---------1-----0---------0---0h3p0---| 
G|------5-----5-----5-----5-----5-----2---2-----2---------2-------2-| 
D|------------------------------------------------------------------| 
A|--0---------------------------------------------------------------| 
E|------------------------------------------------------------------| 

e|--2-----2-----2-----2-----2-----2-----2---3-----0-----0-----0-----0-----0-| 
B|----1-----1-----1-----1-----1-----1---------0-----0-----0-----0-----0-----| 
G|--2---2-----2-----2-----2-----2-----2---------4-----4-----4-----4-----4---| 
D|--------------------------------------------------------------------------| 
A|--------------------------------------------------------------------------| 
E|------------------------------------------------0-------------------------| 

Refrain:
e|------0-----0-----0-----0-----0-----0-----0-----0-| 
B|----0-----0-----0-----0-----0-----0-----0-----0---| 
G|--12----9-----14----11----12----12----12----12----| 
D|--------------------------------------------------| 
A|--------------------------------------------------| 
E|--------------------------------------------------| 
                        
e|------0-----0-----0-----0--------0-----0-----0-----0-| 
B|----0-----0-----0-----0--------0-----0-----0-----0---| 
G|--12----9-----14----11----14/16----16----16----16----| 
D|-----------------------------------------------------| 
A|-----------------------------------------------------| 
E|-----------------------------------------------------| 

e|------0-----0-----0-----0-----0-----0-----0-----0-| 
B|----0-----0-----0-----0-----0-----0-----0-----0---| 
G|--12----9-----14----11----12----12----12----12----| 
D|--------------------------------------------------| 
A|--------------------------------------------------| 
E|--------------------------------------------------| 

e|------0-----0------0-----0-------0-----0-----0-----0-----0-----0-----0-----0-| 
B|----0-----0------0-----0-------0-----0-----0-----0-----0-----0-----0-----0---| 
G|--15----14-----12----9-----7h9-----9-----9-----9-----9-----9-----9-----9-----| 
D|-----------------------------------------------------------------------------| 
A|-----------------------------------------------------------------------------| 
E|-----------------------------------------------------------------------------| 

e|--0---------------------0----------0----------2----------0---------| 
B|--0----------0----------0----------0----------3----------0---------| 
G|--0----------0----------0----------0----------4----------0---------| 
D|--2-.-.-.-.--0----------2-.-.-.-.--0----------4-.-.-.-.--2-.-.-.-.-| 
A|--3----------2-.-.-.-.--3----------2-.-.-.-.--2----------3---------| 
E|-------------3---------------------3-------------------------------| 

       Strum 
e|--2----------0----------0----------| 
B|--3----------0----------0----------| 
G|--4----------0----------0----------| 
D|--4-.-.-.-.--2-.-.-.-.--0----------| 
A|--2----------3----------2-.-.-.-.--| 
E|------------------------3----------| 

Refrain:
e|------0-----0-----0-----0-----0-----0-----0-----0-| 
B|----0-----0-----0-----0-----0-----0-----0-----0---| 
G|--12----9-----14----11----12----12----12----12----| 
D|--------------------------------------------------| 
A|--------------------------------------------------| 
E|--------------------------------------------------| 
                        
e|------0-----0-----0-----0--------0-----0-----0-----0-| 
B|----0-----0-----0-----0--------0-----0-----0-----0---| 
G|--12----9-----14----11----14/16----16----16----16----| 
D|-----------------------------------------------------| 
A|-----------------------------------------------------| 
E|-----------------------------------------------------| 

e|------0-----0-----0-----0-----0-----0-----0-----0-| 
B|----0-----0-----0-----0-----0-----0-----0-----0---| 
G|--12----9-----14----11----12----12----12----12----| 
D|--------------------------------------------------| 
A|--------------------------------------------------| 
E|--------------------------------------------------| 

                            2x 
e|------0-----0------0-----0-------0-----0-----0-----0-| 
B|----0-----0------0-----0-------0-----0-----0-----0---| 
G|--15----14-----12----9-----7h9-----9-----9-----9-----| 
D|-----------------------------------------------------| 
A|-----------------------------------------------------| 
E|-----------------------------------------------------| 

e|------------------------------------0----------12-| 
B|-----------------------------------0----------12--| 
G|--15--14h15p14--12----------------0----------12---| 
D|---------------------------------2----------14----| 
A|--------------------------------2-----------------| 
E|-------------------------------0------------------| 
                                     Strum
Наверх