Аккорды Gwen Stefani - 4 In The Morning

Добавлено: @romashka
Дата добавления: 11 Марта 2022г.
Рейтинг:
0.0
Просмотров: 33
Транспонировать - +
Chords used:
Am -  x02210
C -   x32010
F -   133211
G/B - x2x003
G -   320033
G# -  466544
Bb -  x13331
Gm -  355333
Cm -  x35543
 
 
Intro: Piano (x2)
               Am                                 C
e|-------------------12----------|-------------12----------------------|
B|----------13----13----15-13-12-|----------13----15-13----------13----|
G|-------14----14----------------|-------12-------------12----12----12-|
D|----14-------------------------|----14-------------------14----------|
A|-12----------------------------|-15----------------------------------|
E|-------------------------------|-------------------------------------|
then
               F                    C          G/B
e|-------------------12----------|-------------12----------------------|
B|----------13----13----15-13-12-|----------13----15-13----------13----|
G|-------------14----------------|-------12-------------12----12----12-|
D|-------15----------------------|----14-------------------14----------|
A|----15-------------------------|-15----------14----------------------|
E|-13----------------------------|-------------------------------------|
 
 
Verse 1:
Am                  C
  Wakin up to find another day
F                         C
  The moon got lost again last night
Am                            C
  But now the sun has finally had it’s say
F                       C
  I guess I feel alright
       F                                      Am
But it hurts when I think, when I let it sink in
              G
It’s all over me
              F
I know you’re here, in the dark
                  C                   G
I’m watchin' you sleep, it hurts a lot
 
 
Chorus:
    G#    Bb             Gm             Cm
And all I know is you’ve got to give me everything
    G#      Bb               Gm                Cm
And nothing less, 'cause you know I’d give you all of me
 
 
Gwen Sings fast:
             G#
I’d give you everything that I am
                Bb
I’m handin over everything that I’ve got
              Gm
Cause I wanna have a really true love
                 Cm
Don’t ever wanna have to go and give you up
             G#
Stay up till four in the morning and the tears are pouring
      Bb
And I wanna make it worth the fight
                      Gm
But what have we been doing for all this time
              Cm
Baby if we’re gonna do it come and do it right
 
 
(Repeat Intro once only)
 
 
Verse 2:
Am                    C
  All I wanted was to know I'm safe
F                             C
  Don’t wanna lose the love I found
Am                            C
  Remember when you said that you would change
F                  C
  Don’t let me down
         F
It’s not fair, how you are
              C                          G
I can’t be complete, can you give me more
 
 
(Repeat Chorus)
 
 
Bridge:
Am
Oh please, you know what I need
F
Save all your lovin for me
   Am
We can’t escape the love
     F
With everything that you have
 
 
(Repeat Chorus) 
Наверх