Аккорды Хаку - На руках моих

Добавлено: @romashka
Дата добавления: 12 Февраля 2021г.
Рейтинг:
0.0
Просмотров: 28
Транспонировать - +
[intro]

e|---------------------------------------|------------------------------------|
B|---------6-----------------------------|---------8--------6-----------------|
G|0-2----5-------------------------------|0-2----5----------------------------|
D|---------------------------------------|------------------------------------|
A|---------------------------------------|------------------------------------|
E|---------------------------------------|------------------------------------|

e|---------------------------------------|------------------------------------|
B|---------6-----------------------------|---------8--------6-----------------|
G|0-2----5-------------------------------|0-2----5----------------------------|
D|---------------------------------------|------------------3-----------------|
A|---------------------------------------|------------------------------------|
E|---------------------------------------|------------------------------------|

e|---------------------------------------|------------------------------------|
B|---------------------------------------|------------------------------------|
G|0-2----5-7-----------------------------|0-2----5-7--------------------------|
D|---------7-----------------------------|------------------------------------|
A|---------------------------------------|------------------------------------|
E|---------------------------------------|------------------------------------|

e|---------------------------------------|------------------------------------|
B|---------------------------------------|------------------------------------|
G|0-2----5-7-----------------------------|0-2----5-7--------3-----------------|
D|---------------------------------------|------------------------------------|
A|---------------------------------------|------------------1-----------------|
E|---------------------------------------|------------------------------------|

[куплет]

             Когда тучи окутают небо                Когда погаснут все фонари
e|---------------------------------------|------------------------------------|
B|---------6-----------------------------|---------8--------6-----------------|
G|0-2----5-------------------------------|0-2----5----------------------------|
D|---------------------------------------|------------------------------------|
A|---------------------------------------|------------------------------------|
E|---------------------------------------|------------------------------------|

             Ты найдёшь моё мёртвое тело            Гниющим от передоза любви
e|---------------------------------------|------------------------------------|
B|---------6-----------------------------|---------8--------6-----------------|
G|0-2----5-------------------------------|0-2----5----------------------------|
D|---------------------------------------|------------------3-----------------|
A|---------------------------------------|------------------------------------|
E|---------------------------------------|------------------------------------|

             Я напишу тебе все свои строчки          На рваном тетрадном листоч-
e|---------------------------------------|------------------------------------|
B|---------------------------------------|------------------------------------|
G|0-2----5-7-----------------------------|0-2----5-7--------------------------|
D|---------7-----------------------------|------------------------------------|
A|---------------------------------------|------------------------------------|
E|---------------------------------------|------------------------------------|

  ке         В холод буду твоим одеялом      Чтобы не случилось, знай – я всегда буду рядом 
e|---------------------------------------|------------------------------------|
B|---------------------------------------|------------------------------------|
G|0-2----5-7-----------------------------|0-2----5-7--------3-----------------|
D|---------------------------------------|------------------------------------|
A|---------------------------------------|------------------1-----------------|
E|---------------------------------------|------------------------------------|

Когда солнце больше не взойдёт
Я обещаю, что спать буду только с тобой
Среди тревог и злобы я буду хранить твой сон
Мне не забыть твой аромат, ведь ты пахнешь весной
Сердечко на руке вырезал лишь для тебя
Со мной сложно общаться, ведь меня не понять
Поздно выяснять, кто кого бросил
Но я прошу тебя – выполни мою последнюю просьбу

Bb
  Засыпай на руках моих
Dm
  В моей картине ты – последний штрих
Gm
  Картины жизни и любви
Cm     F9
  Засыпай на руках моих (х2)

[outro]

              Засыпай на руках моих                 В моей картине ты последний штрих
e|---------------------------------------|------------------------------------|
B|---------6-----------------------------|---------8--------6-----------------|
G|0-2----5-------------------------------|0-2----5----------------------------|
D|---------------------------------------|------------------------------------|
A|---------------------------------------|------------------------------------|
E|---------------------------------------|------------------------------------|
              Картины жизни и любви                  Засыпай на руках моих 
e|---------------------------------------|------------------------------------|
B|---------6-----------------------------|---------8--------6-----------------|
G|0-2----5-------------------------------|0-2----5----------------------------|
D|---------------------------------------|------------------3-----------------|
A|---------------------------------------|------------------------------------|
E|---------------------------------------|------------------------------------|

e|---------------------------------------|------------------------------------|
B|---------------------------------------|------------------------------------|
G|0-2----5-7-----------------------------|0-2----5-7--------------------------|
D|---------7-----------------------------|------------------------------------|
A|---------------------------------------|------------------------------------|
E|---------------------------------------|------------------------------------|

e|---------------------------------------|------------------------------------|
B|---------------------------------------|------------------------------------|
G|0-2----5-7-----------------------------|0-2----5-7--------3-----------------|
D|---------------------------------------|------------------------------------|
A|---------------------------------------|------------------1-----------------|
E|---------------------------------------|------------------------------------|
Наверх