Аккорды Hanoi Rocks - New York City

Добавлено: @romashka
Дата добавления: 15 Февраля 2024г.
Рейтинг:
0.0
Просмотров: 85
Main riff:

     D          Bm        F#m
|----0-----|-------------|----|-------------------|
|--3-3-3-2-|-------2-----|----|-------------------|
|--2---2-2-|-4-4-2-4-4-2-|----|---1-2-------------|
|--0-------|-4-4-4-4-4-4-|-4--|-4-----------------|
|----------|-2-2---------|-4--|-------------------|
|----------|-------------|-2--|-------------------|
     D          Bm           C#    A     A/Ab
|----0-----|---------------|----|-----|------------|
|--3-3-3-2-|-------2-------|----|-----|------------|
|--2---2-2-|-4-4-2-4-4-2-4-|-6--|-----|------------|
|--0-------|-4-4-4-4-4-4-4-|-6--|--7--|--7---------|
|----------|-2-2-----------|-4--|--7--|--7---------|
|----------|---------------|----|--5--|--4---------|


       F#m
Took myself outta New York City
But New York won't leave me alone
I found everything I needed there
In a Deli right down the street
Am
  It's always in my blood
The last place I felt at home
F#m
Chewing up the great Big Apple
You learn to love the smell of the streets
D                   Bm               F#m
  THERE'S ROCK 'N' ROLL IN NEW YORK CITY
D               Bm              F#m
  AND LOTS OF THINGS TO GET ON DOWN
D               Bm               F#m
  LIFE CAN GET HARD IN NEW YORK CITY
D              Bm                C#
  BUT I'LL BE BACK TO ROCK THAT TOWN
A     A/Ab    F#m
 JUST STICK AROUND

(Solo)
A A/Ab    F#m
   Either I had nails for breakfast
Or the day just wasn't right
Face to face with sheer brutality
Concrete cold reality
Am
Part of me just couldn't stay
Part of me just can't break away
   F#m
Survivin' New York City
Is an impressive fact indeed

D                   Bm               F#m
  THERE'S ROCK 'N' ROLL IN NEW YORK CITY
D               Bm              F#m
  AND LOTS OF THINGS TO GET ON DOWN
D               Bm               F#m
  LIFE CAN GET HARD IN NEW YORK CITY
D              Bm                C#
  BUT I'LL BE BACK TO ROCK THAT TOWN
A     A/Ab    F#m
 JUST STICK AROUND

(Repeat and fade)
Но если и музыка нас оставит, что будет тогда с нашим миром? (Гоголь)
Мы стремимся к созданию контента, соответствующего всем нормам законодательства и уважающего интеллектуальную собственность. Мы также придаем большое значение тому, чтобы не задеть никого и не оскорбить чьи-либо чувства. Если у вас есть вопросы или претензии по размещенному материалу, пожалуйста, сообщите нам об этом.
Шрифт
-
0
+
Прокрутка
-
0
+
Стоп
Наверх